Guitar Tabs, Chords and Lyrics
Server problems seems to be fixed. Chordie has been experiencing problems with songs disappearing. These issues now seems to be fixed, but still verifying the fix. If you find anything strange, please email admin@chordie.com.


A Heart Like Hers  Mac DeMarco

Intro, verse and bridge chords (arranged for guitar)
 
 |----4----|----4----|----2----|----2----|----2----|----5----|
 |----4----|----4----|----4----|----2----|----2----|----5----|
 |----5----|----4----|----3----|----3----|----3----|----6----|
 |----3----|----2----|----1----|----x----|----1----|----x----|
 |---------|---------|---------|----1----|---------|----4----|
 |---------|---------|---------|---------|---------|---------|

[Fm7] [Emaj7] [Ebm] [Ebm7/Bb] [Ebm7] [Gbm7/Db] 
Chorus chords (arranged for guitar)
 
 |----4----|----4----|----6----|----6----|
 |----6----|----4----|----7----|----7----|
 |----5----|----4----|----8----|----6----|
 |----6----|----6----|----8----|----8----|
 |----x----|----7----|----6----|----6----|
 |----4----|----4----|---------|----9----|

[Ab6] [Emaj7/Ab] [Ebm] [Ebm7/Db]  
Intro:
Fm7 Emaj7 Ebm Ebm7/B Ebm7 x2
Verse 1:
Done, done is all the love, love that I had saved for you
G[Fm7]one, gone with my hear[Emaj7]t, locked inside a c[Ebm]age for you[Ebm7/B] [Ebm7]
A[Fm7]nd once this that has [Emaj7]become, has become o[Ebm]f poor old me[Ebm7/B] [Ebm7]
T[Fm7]ried, so hard to belie[Emaj7]ve in something that[Ebm] will never be,[Ebm7/B] never be.[Ebm7]..
Fm7 Emaj7 Ebm Gbm7/Db*
Chorus:
lieve in a heart like hers again
Ne[Ab6]ver believ[Emaj7/Ab]e in a heart [Ebm]like he[Ebm7/Db]rs again
Ne[Ab6]ver believ[Emaj7/Ab]e in a heart [Ebm]like he[Ebm7/Db]rs again
Ne[Ab6]ver believ[Emaj7/Ab]e[Ebm] [Ebm7/Db]
[Gbm7/Db]  
Intro again
Verse 2
All, all that I could give, all I had to offer her
I[Fm7]s gone, simply locked [Emaj7]away, no longer ther[Ebm]e to bother her[Ebm7/B] [Ebm7]
N[Fm7]ow look, look at what'[Emaj7]s become, what's bec[Ebm]ome of poor old [Ebm7/B]me[Ebm7]
T[Fm7]ried, so hard to belie[Emaj7]ve in something that[Ebm] will never be, [Ebm7/B]never be..[Ebm7]..
Fm7 Emaj7 Ebm Gbm7/Db*
Outro
Gbm7/Db x2 then finish on Fm7

Important: The song above is NOT stored on the Chordie server. The original song is hosted at www.azchords.com. Chordie works as a search engine and provides on-the-fly formatting. Chordie does not index songs against artists'/composers' will. To remove this song please click here.

Text color:
Chord color:
Chord grids: 
Font size:    
Page size: 

Ab6 Ebm Ebm7 Ebm7/B Ebm7/Bb Ebm7/Db Emaj7 Emaj7/Ab Fm7 Gbm7/Db
Rate #1 of 1 versions

Login - add to songbook

SHARE PAGE  



You need to log in to post comments