Guitar Tabs, Chords and Lyrics
Server problems seems to be fixed. Chordie has been experiencing problems with songs disappearing. These issues now seems to be fixed, but still verifying the fix. If you find anything strange, please email admin@chordie.com.


Ghosts Will Haunt My Bones   Machine Head

 
 |--|--|--|--|-[-B-]-|--|--|--|--|

 


 


 The 'x' indicates where your tuning should be


 


 Also comment, correct, and please, please rate!!!


 


 Guitar 1: Robb Flynn


 Guitar 2: Phil Demmel


 Guitar 3: Harmony


 


 Tabbing Legend


 Hammer on: h


 Pull off: p


 Slide up: /


 Slide down: \


 Natural Harmonic: NH


 Pinch Harmonic: PH


 Bend: BU(?)


 Whammy Bar Rise: WBR


 Whammy Bar Lower: WBL


 Whammy Bar Vibrato: WB~~~


 Tremelo Pick: Tr---


 Tapped note: T


 Trill: tr (rapid hammer on?s and pull off?s)


 Muted note: M


 Palm Mute: PM---


 Killswitch: K (can use bridge selector)


 Quick bend: ^


 Pick Slide: X\\\


 Whammy Pedal: +


 


 ____________________________________________________________________________


 


 Intro


 Guitar 2


 T T


 |-12p10h12p0h10h12-19p12p0h10h12p0h10h12-17p12p|


 

 
 |----------------------------------------------|
 |----------------------------------------------|
 |----------------------------------------------|
 |----------------------------------------------|
 |----------------------------------------------|

 


 |


 |Guitar 1 PM


 

 
 |---------------------------------|
 |---------------------------------|
 |---------------------------------|
 |-2-------------------------------|
 |-2-----------------------------2-|
 |-2-----------------------------2-|

 


 


 Guitar 2


 T T


 |-0h10h12p0h10h12-20p12p0h10h12p0h10h12-19/20p|


 

 
 |---------------------------------------------|
 |---------------------------------------------|
 |---------------------------------------------|
 |---------------------------------------------|
 |---------------------------------------------|

 


 |


 |Guitar 1


 | PM


 

 
 |---------------------------------|
 |---------------------------------|
 |---------------------------------|
 |---------------------------------|
 |---2-----------------------------|
 |---2-----------------------------|

 


 


 Guitar 2


 T T


 |-12p10h12p0h10h12-19p12p0h10h12p0h10h12-20p12p|


 

 
 |----------------------------------------------|
 |----------------------------------------------|
 |----------------------------------------------|
 |----------------------------------------------|
 |----------------------------------------------|

 


 |


 |Guitar 1 PM


 

 
 |---------------------------------|
 |---------------------------------|
 |---------------------------------|
 |-2-------------------------------|
 |-2-----------------------------2-|
 |-2-----------------------------2-|

 


 


 Guitar 2


 T T T


 |-19p10h12p0h10h12-17p12p0h10h12p0h10h12-19/20p|


 

 
 |----------------------------------------------|
 |----------------------------------------------|
 |----------------------------------------------|
 |----------------------------------------------|
 |----------------------------------------------|

 


 |


 |Guitar 1


 | PM NH


 

 
 |---------------------------------|
 |---------------------------------|
 |-----------------------------4---|
 |---------------------------------|
 |---2-----------------------------|
 |---2-----------------------------|

 


 


 Tapping continues but the rhythm changes to below


 Guitar 1


 

 
 PM-------------------------------------------------------------
 ||-----------------------------------------------------------------||
 |o-----------------------------------------------------------------o|
 ||-----------------------------------------------------------------||
 ||-----------------------------------------------------------------||
 |o-----------------------------------------------------------------o|
 ||-2-2-2-2-2---2-2-3-2-2---2-2-2-2-2---2-2-2-2-2---2-2-2---2-3-2---||

 


 


 ____________________________________________________________________________


 


 Intro(chorus riff)


 Both guitars


 PM NH- PM---


 

 
 ||-------------------------------------------------------------||
 |o-------------------------------------------------------------o|
 ||---------------------------5---------------------------------|| x3
 ||-----------------------------5-------------------------------||
 |o-------------------------------------------------------0-1-0-o|
 ||-2BU(3)(2)---2BU(3)(2)---0-----2BU(3)(2)---2BU(3)(2)---0-1-0-||

 


 


 PM NH- PM---


 

 
 |-------------------------------------------------------------|
 |-------------------------------------------------------------|
 |---------------------------5---------------------------------|
 |-----------------------------5-------------------------------|
 |-------------------------------------------------------0-2-3-|
 |-2BU(3)(2)---2BU(3)(2)---0-----2BU(3)(2)---2BU(3)(2)---0-2-3-|

 


 


 Guitar 1 PM NH- PM---


 

 
 |-------------------------------------------------------------|
 |-------------------------------------------------------------|
 |---------------------------5---------------------------------|
 |-----------------------------5-------------------------------|
 |-------------------------------------------------------0-1-0-|
 |-2BU(3)(2)---2BU(3)(2)---0-----2BU(3)(2)---2BU(3)(2)---0-1-0-|

 


 |


 |Guitar 2


 | PM NH- PM---


 

 
 |-------------------------------------------------------------|
 |-------------------------------------------------------------|
 |---------------------------5---------------------------------|
 |-----------------------------5-------------------------------|
 |-------------------------------------------------------0-1-0-|
 |-------------------------0-----2BU(3)(2)---2BU(3)(2)---0-1-0-|

 


 


 PM NH- PM---


 

 
 ||-------------------------------------------------------------||
 |o-------------------------------------------------------------o|
 ||---------------------------5---------------------------------|| x2
 ||-----------------------------5-------------------------------||
 |o-------------------------------------------------------0-1-0-o|
 ||-2BU(3)(2)---2BU(3)(2)---0-----2BU(3)(2)---2BU(3)(2)---0-1-0-||

 


 


 Both guitars


 PM NH- PM---


 

 
 |-------------------------------------------------------------|
 |-------------------------------------------------------------|
 |---------------------------5---------------------------------|
 |-----------------------------5-------------------------------|
 |-------------------------------------------------------0-2-3-|
 |-2BU(3)(2)---2BU(3)(2)---0-----2BU(3)(2)---2BU(3)(2)---0-2-3-|

 


 


 Guitar 1 PM-


 

 
 |---------------------------------|
 |---------------------------------|
 |---------------------------------|
 |-0-----------------------------3-|
 |-0-----------------------0-0-0-3-|
 |-0-----------------------0-0-0-3-|

 


 |


 |Guitar 2


 | T T


 |-12p10h12p0h10h12-19p12p0h10h12p0h10h12-17p12p|


 

 
 |----------------------------------------------|
 |----------------------------------------------|
 |----------------------------------------------|
 |----------------------------------------------|
 |----------------------------------------------|

 


 


 Guitar 1


 

 
 |---------------------------------|
 |---------------------------------|
 |---------------------------------|
 |-(3)-----------------------------|
 |-(3)-----------------------------|
 |-(3)-----------------------------|

 


 |


 |Guitar 2


 | T T


 |-0h10h12p0h10h12-20p12p0h10h12p0h10h12-19/20p|


 

 
 |---------------------------------------------|
 |---------------------------------------------|
 |---------------------------------------------|
 |---------------------------------------------|
 |---------------------------------------------|

 


 


 ____________________________________________________________________________


 


 Verse


 Guitar 2


 T T


 ||-12p10h12p0h10h12-19p12p0h10h12p0h10h12-17/19p|


 

 
 |o----------------------------------------------|
 ||----------------------------------------------|
 ||----------------------------------------------|
 |o----------------------------------------------|
 ||----------------------------------------------|

 


 |


 |Guitar 1 (clean chorus flange/reverb)


 

 
 ||------19--------------------------------------|
 |o---17-----------------------------------------|
 ||--16------------------------------------------|
 ||-14-------------------------------------------|
 |o----------------------------------------------|
 ||----------------------------------------------|

 


 


 Guitar 2


 T T


 |-0h10h12p0h10h12-20p12p0h10h12p0h10h12-19/20p|


 

 
 |---------------------------------------------|
 |---------------------------------------------|
 |---------------------------------------------|
 |---------------------------------------------|
 |---------------------------------------------|

 


 |


 |Guitar 1


 

 
 |------17--------------------------------------|
 |---17-----------------------------------------|
 |--14------------------------------------------|
 |-14-------------------------------------------|
 |----------------------------------------------|
 |----------------------------------------------|

 


 


 Guitar 2


 T T


 |-12p10h12p0h10h12-19p12p0h10h12p0h10h12-20p12p||


 

 
 |----------------------------------------------o|
 |----------------------------------------------||
 |----------------------------------------------||
 |----------------------------------------------o|
 |----------------------------------------------||

 


 |


 |Guitar 1


 

 
 |------17--------------------------------------|
 |---15-----------------------------------------|
 |--14------------------------------------------|
 |-12-------------------------------------------|
 |----------------------------------------------|
 |----------------------------------------------|

 


 


 


 1st ending


 Guitar 2


 T T


 |-0h10h12p0h10h12-17p12p0h10h12p0h10h12-19/20p|


 

 
 |---------------------------------------------|
 |---------------------------------------------|
 |---------------------------------------------|
 |---------------------------------------------|
 |---------------------------------------------|

 


 |


 |Guitar 1


 

 
 |----12---------------------------------------|
 |---13----------------------------------------|
 |--12-----------------------------------------|
 |-10------------------------------------------|
 |---------------------------------------------|
 |---------------------------------------------|

 


 


 2nd ending


 Guitar 2


 T T


 

 
 |-0h10h12p0h10h12-17p12-15p12-15-15-15-15-15-|
 |-----------------------------17-17-17-17-17-|
 |--------------------------------------------|
 |--------------------------------------------|
 |--------------------------------------------|
 |--------------------------------------------|

 


 |


 |Guitar 1


 

 
 |----12-----------------------12-12-12-12-12-|
 |---13------------------------13-13-13-13-13-|
 |--12-------------------------12-12-12-12-12-|
 |-10-----------------------------------------|
 |--------------------------------------------|
 |--------------------------------------------|

 


 


 ____________________________________________________________________________


 


 Chorus


 Both guitars


 PM NH- PM---


 

 
 ||-------------------------------------------------------------||
 |o-------------------------------------------------------------o|
 ||---------------------------5---------------------------------|| x3
 ||-----------------------------5-------------------------------||
 |o-------------------------------------------------------0-1-0-o|
 ||-2BU(3)(2)---2BU(3)(2)---0-----2BU(3)(2)---2BU(3)(2)---0-1-0-||

 


 


 PM NH- PM---


 

 
 |-------------------------------------------------------------|
 |-------------------------------------------------------------|
 |---------------------------5---------------------------------|
 |-----------------------------5-------------------------------|
 |-------------------------------------------------------0-2-3-|
 |-2BU(3)(2)---2BU(3)(2)---0-----2BU(3)(2)---2BU(3)(2)---0-2-3-|

 


 


 Both guitars PM-


 

 
 |---------------------------------|
 |---------------------------------|
 |---------------------------------|
 |-0-----------------------------3-|
 |-0-----------------------0-0-0-3-|
 |-0-----------------------0-0-0-3-|

 


 


 ____________________________________________________________________________


 


 Break (fade in)


 Guitar 2


 T T


 |-12p10h12p0h10h12-19p12p0h10h12p0h10h12-17/19p|


 

 
 |----------------------------------------------|
 |----------------------------------------------|
 |----------------------------------------------|
 |----------------------------------------------|
 |----------------------------------------------|

 


 


 T T


 |-0h10h12p0h10h12-20p12p0h10h12p0h10h12-19/20p|


 

 
 |---------------------------------------------|
 |---------------------------------------------|
 |---------------------------------------------|
 |---------------------------------------------|
 |---------------------------------------------|

 


 


 ____________________________________________________________________________


 


 Repeat Verse


 


 Repeat Chorus


 


 At the end of the second chorus play this:


 


 Both guitars (phaser)


 

 
 |-----------------------------------------------------------------------|
 |-----------------------------------------------------------------------|
 |-----------------------------------------------------------------------|
 |-7---7-7-7-7-7-7-7-7-7-7-7-7-7-7-10---10-10-10-10-10-10-10-10-10-10-10-|
 |-5---5-5-5-5-5-5-5-5-5-5-5-5-5-5--8----8--8--8--8--8--8--8--8--8--8--8-|
 |-----------------------------------------------------------------------|

 


 


 ____________________________________________________________________________


 


 Bridge


 Guitar 1


 

 
 ||-----------------------------------------------------------------||
 |o-----------------------------------------------------------------o|
 ||-----------------------------------------------------------------||
 ||-----------------------------------------------------------------||
 |o-3-2---------3-2---------3-2-6-5-3-2---------3-2---------3-2-6-5-o|
 ||-3-2---------3-2---------3-2-6-5-3-2---------3-2---------3-2-6-5-||

 


 |


 |Guitar 2


 

 
 | NH----- NH----- NH----- NH-----
 ||-----------5-----------5-------------------5-----------5---------||
 |o---------5-----------5-------------------5-----------5-----------o|
 ||-------5-----------5-------------------5-----------5-------------||
 ||-----5-----------5-------------------5-----------5---------------||
 |o-3-2---------3-2---------3-2-6-5-3-2---------3-2---------3-2-6-5-o|
 ||-3-2---------3-2---------3-2-6-5-3-2---------3-2---------3-2-6-5-||

 


 


 Guitar 1


 

 
 ||-----------------------------------------------------------------||
 |o-----------------------------------------------------------------o|
 ||-----------------------------------------------------------------||
 ||-----------------------------------------------------------------||
 |o-3-2-x-x-x-x-3-2-x-x-x-x-3-2-6-5-3-2-x-x-x-x-3-2-x-x-x-x-3-2-6-5-o|
 ||-3-2-x-x-x-x-3-2-x-x-x-x-3-2-6-5-3-2-x-x-x-x-3-2-x-x-x-x-3-2-6-5-||

 


 |


 |Guitar 2


 

 
 | NH----- NH----- NH----- NH-----
 ||-----------5-----------5-------------------5-----------5---------||
 |o---------5-----------5-------------------5-----------5-----------o|
 ||-------5-----------5-------------------5-----------5-------------||
 ||-----5-----------5-------------------5-----------5---------------||
 |o-3-2---------3-2---------3-2-6-5-3-2---------3-2---------3-2-6-5-o|
 ||-3-2---------3-2---------3-2-6-5-3-2---------3-2---------3-2-6-5-||

 


 


 Both guitars


 

 
 | NH----- NH----- NH----- NH-----
 ||-----------5-----------5-------------------5-----------5---------||
 |o---------5-----------5-------------------5-----------5-----------o|
 ||-------5-----------5-------------------5-----------5-------------||
 ||-----5-----------5-------------------5-----------5---------------||
 |o-3-2---------3-2---------3-2-6-5-3-2---------3-2---------3-2-6-5-o|
 ||-3-2---------3-2---------3-2-6-5-3-2---------3-2---------3-2-6-5-||

 


 


 Bridge interlude 1


 Guitar 1


 

 
 PM-------------------------------------------------------------
 |-----------------------------------------------------------------|
 |-----------------------------------------------------------------|
 |-----------------------------------------------------------------|
 |-----------------------------------------------------------------|
 |-----------------------------------------------------------------|
 |-2-2-2-2-2---2-2-2-2-2---2-2-2-2-2---2-2-2-2-2---2-2-2---2-2-2---|

 


 |


 |Guitar 2


 

 
 |-----------------------------------------------------------------|
 |-----------------------------------------------------------------|
 |-------------4-4-4-4-4-4-5-5-5-5-5-5-2-2-2-2-2-2-4-4-4-4---------|
 |-2-2-2-2-2-2---------------------------------------------5-5-5-5-|
 |-----------------------------------------------------------------|
 |-----------------------------------------------------------------|

 


 


 Guitar 1


 

 
 PM-------------------------------------------------------------
 |-----------------------------------------------------------------|
 |-----------------------------------------------------------------|
 |-----------------------------------------------------------------|
 |-----------------------------------------------------------------|
 |-----------------------------------------------------------------|
 |-1-1-1-1-1---1-1-1-1-1---1-1-1-1-1---1-1-1-1-1---1-1-1---1-1-1---|

 


 |


 |Guitar 2


 

 
 |-----------------------------------------------------------------|
 |-----------------------------------------------------------------|
 |-2-2-2-2-2-2-------------------------2-2-2-2-2-2-----------------|
 |-------------4-4-4-4-4-4-5-5-5-5-5-5-------------4-4-4-4-5-5-5-5-|
 |-----------------------------------------------------------------|
 |-----------------------------------------------------------------|

 


 


 ____________________________________________________________________________


 


 Repeat Bridge


 


 Repeat Bridge interlude 1


 


 ____________________________________________________________________________


 


 Bridge interlude 2


 Guitar 1


 

 
 PM-------------------------------------------------------------
 |-----------------------------------------------------------------|
 |-----------------------------------------------------------------|
 |-----------------------------------------------------------------|
 |-----------------------------------------------------------------|
 |-----------------------------------------------------------------|
 |-2-2-2-2-2---2-2-2-2-2---2-2-2-2-2---2-2-2-2-2---2-2-2---2-2-2---|

 


 |


 |Guitar 2


 

 
 |-------------------------------------------------------------------|
 |-------------12-12-12-12-12-12-13-13-13-13-13-13-10-10-10-10-10-10-|
 |-9-9-9-9-9-9-------------------------------------------------------|
 |-------------------------------------------------------------------|
 |-------------------------------------------------------------------|
 |-------------------------------------------------------------------|

 


 


 Guitar 2 (con?t)


 

 
 |-------------------------|
 |-------------------------|
 |-11-11-11-11-12-12-12-12-|
 |-------------------------|
 |-------------------------|
 |-------------------------|

 


 


 Guitar 1


 

 
 PM-----------------------------
 |-----------------------------------------------------------------|
 |-----------------------------------------------------------------|
 |-----------------------------------------------------------------|
 |---------------------------------5-------------------------------|
 |---------------------------------5-Volume swell------------------|
 |-1-1-1-1-1---1-1-1-1-1---1-1-1-1-5-------------------------------|

 


 |


 |Guitar 2


 

 
 |-------------------------------------------------------------------------|
 |-10-10-10-10-10-10-------------------------------------10-10-10-10-10-10-|
 |-------------------11-11-11-11-11-11-12-12-12-12-12-12-------------------|
 |-------------------------------------------------------------------------|
 |-------------------------------------------------------------------------|
 |-------------------------------------------------------------------------|

 


 


 Guitar 2 (con?t)


 

 
 |-------------------------|
 |-------------------------|
 |-11-11-11-11-12-12-12-12-|
 |-------------------------|
 |-------------------------|
 |-------------------------|

 


 


 ____________________________________________________________________________


 


 Pre-harmony


 Guitar 2


 

 
 |-12-10-8--------------15-13-12----------------|
 |---------12-10-8---------------15-13-12-------|
 |-----------------10-9-------------------14-12-|
 |----------------------------------------------|
 |----------------------------------------------|
 |----------------------------------------------|

 


 |


 |Guitar 1


 

 
 |----------------------------------------------|
 |----------------------------------------------|
 |----------------------------------------------|
 |-7--------------------5-----------------------|
 |-7--------------------5-----------------------|
 |-7--------------------5-----------------------|

 


 


 Guitar 2


 

 
 |-17-15-13----------------19-17-15----------------|
 |----------17-15-13----------------18-17-15-------|
 |-------------------16-14-------------------17-16-|
 |-------------------------------------------------|
 |-------------------------------------------------|
 |-------------------------------------------------|

 


 |


 |Guitar 1


 

 
 |-------------------------------------------------|
 |-------------------------------------------------|
 |-------------------------------------------------|
 |-3-----------------------2-----------------------|
 |-3-----------------------2---------x-x---------x-|
 |-3-----------------------2---------x-x---------x-|

 


 


 ____________________________________________________________________________


 


 Harmony


 Guitar 1


 

 
 |-12-10-8--------------15-13-12----------------|
 |---------12-10-8---------------15-13-12-------|
 |-----------------10-9-------------------14-12-|
 |----------------------------------------------|
 |----------------------------------------------|
 |----------------------------------------------|

 


 |


 |Guitar 2


 

 
 |-12-10-8-12-10-8-------15-13-12-15-13-12-------|
 |-----------------12-10-------------------15-13-|
 |-----------------------------------------------|
 |-----------------------------------------------|
 |-----------------------------------------------|
 |-----------------------------------------------|

 


 


 Guitar 1


 

 
 |-17-15-13----------------19-17-15----------------|
 |----------17-15-13----------------18-17-15-------|
 |-------------------16-14-------------------17-16-|
 |-------------------------------------------------|
 |-------------------------------------------------|
 |-------------------------------------------------|

 


 |


 |Guitar 2


 

 
 |-17-15-13-17-15-13-------19-17-15-19-17-15-------|
 |-------------------17-15-------------------18-17-|
 |-------------------------------------------------|
 |-------------------------------------------------|
 |-------------------------------------------------|
 |-------------------------------------------------|

 


 


 ____________________________________________________________________________


 


 Solo 1 (Robb Flynn)


 Guitar 2 (Rhythm)


 

 
 ||-----------------------------------------------------------------||
 |o-----------------------------------------------------------------o|
 ||-----------------------------------------------------------------||
 ||-----------------------------------------------------------------||
 |o-3-2-x-x-x-x-3-2-x-x-x-x-3-2-6-5-3-2-x-x-x-x-3-2-x-x-x-x-3-2-6-5-o|
 ||-3-2-x-x-x-x-3-2-x-x-x-x-3-2-6-5-3-2-x-x-x-x-3-2-x-x-x-x-3-2-6-5-||

 


 


 Guitar 1 (Lead) T


 

 
 |-19~~~~~~~~~~~~-/16h17BU(19)-20~~~~~~-17p16-17BU(19)~~~~~~-|
 |-----------------------------------------------------------|
 |-----------------------------------------------------------|
 |-----------------------------------------------------------|
 |-----------------------------------------------------------|
 |-----------------------------------------------------------|

 


 


 Tr-----


 

 
 |-/20-------19-20-19-17-19-17-16-17-16--16--------------------------------|
 |-------------------------------------18--18-17-15-17-15--15--------------|
 |-------------------------------------------------------17--17-16-14-16~~-|
 |-------------------------------------------------------------------------|
 |-------------------------------------------------------------------------|
 |-------------------------------------------------------------------------|
 |--------------------------------------------------------------|
 |--------------------------------12h13p12-15-15BU(17)---15~~~~-|
 |-13-BU-(14)~~~-(14)PH-----13-14-------------------------------|
 |--------------------------------------------------------------|
 |--------------------------------------------------------------|
 |--------------------------------------------------------------|
 |-----13-16p13----------13-16p13----------13-19p16----------16-|
 |---15---------15----15----------15----15----------18----18----|
 |-16--------------16----------------16----------------19-------|
 |--------------------------------------------------------------|
 |--------------------------------------------------------------|
 |--------------------------------------------------------------|

 


 


 |-19p16h19p16h19p16-19BU(22)~~~~~-|


 

 
 |---------------------------------|
 |---------------------------------|
 |---------------------------------|
 |---------------------------------|
 |---------------------------------|

 


 


 ____________________________________________________________________________


 


 Repeat Harmony


 


 ____________________________________________________________________________


 


 Solo 2 (Phil Demmel)


 Guitar 1 (Rhythm)


 

 
 PM----- PM----- PM----- PM-----
 ||-----------------------------------------------------------------||
 |o-----------------------------------------------------------------o|
 ||-----------------------------------------------------------------||
 ||-----------------------------------------------------------------||
 |o-3-2---------3-2---------3-2-6-5-3-2---------3-2---------3-2-6-5-o|
 ||-3-2-2-2-2-2-3-2-2-2-2-2-3-2-6-5-3-2-2-2-2-2-3-2-2-2-2-2-3-2-6-5-||

 


 


 Guitar 2 (Lead)


 [+] [+]  

 
 |------------------------------------------------------|
 |------------------------------------------------------|
 |-/9h10p9~~~~~~~~~~~~~~~~~~-9h10-10PH-BU(13)(10)-9~~~~-|
 |------------------------------------------------------|
 |------------------------------------------------------|
 |------------------------------------------------------|

 


 


 [+] [+] [+]  

 
 |----------------------------------|
 |-12-----13-----12---10-12-10-9----|
 |-------------------------------10-|
 |----------------------------------|
 |----------------------------------|
 |----------------------------------|
 |-----------------------------------------|
 |-9h10p9----9---------9h10p9----9---------|
 |--------10---10-9h10--------10---10-9h10-|
 |-----------------------------------------|
 |-----------------------------------------|
 |-----------------------------------------|

 


 


 T T T


 

 
 |--------------------------------------------|

 


 |-9h10p9h10-12p10p9h10-13p10p9h10-18p10p9h10-|


 

 
 |--------------------------------------------|
 |--------------------------------------------|
 |--------------------------------------------|
 |--------------------------------------------|
 |-17---19---20-19-17-20-19-17-16-19-17-16----17-16-------16----------|
 |-----------------------------------------18-------18-17----18-17-15-|
 |--------------------------------------------------------------------|
 |--------------------------------------------------------------------|
 |--------------------------------------------------------------------|
 |--------------------------------------------------------------------|
 |------------------------------|
 |-18-17-15----17-15------------|
 |----------17-------17-16-14---|
 |------------------------------|
 |------------------------------|
 |------------------------------|

 


 


 NH


 

 
 |---------------------------|---------------------------|
 |---------------------------|-11~~~~~~~~~---------------|
 |-7PH-WB~~~~~~~~~~-7-WBR///-|-13BU(15)~~~-14tr15-WBL\\\-|
 |---------------------------|---------------------------|
 |---------------------------|---------------------------|
 |---------------------------|---------------------------|
 |-------------------------------------------------------|
 |-13BU(15)---10h13p10-13BU(15)---10h13p10-13BU(15)WB~~~-|
 |-------------------------------------------------------|
 |-------------------------------------------------------|
 |-------------------------------------------------------|
 |-------------------------------------------------------|

 


 


 NH


 

 
 |-------------------------|
 |-------------------------|
 |-3-WBL\\\---(3)---WBR///-|
 |-------------------------|
 |-------------------------|
 |-------------------------|

 


 


 ____________________________________________________________________________


 


 Breakdown


 Both guitars


 

 
 PM-------------------------------------------
 ||-----------------------------------------------------------------||
 |o-----------------------------------------------------------------o|
 ||-----------------------------------------------------------------||
 ||-----------------------------------------------------------------||
 |o-------------------------------------------------3---2---6---5---o|
 ||-2-2-2-2-2---2-2-2-2-2---2-2-2-2-2---2-2-2-2-2---3---2---6---5---||

 


 


 ____________________________________________________________________________


 


 Outro


 Guitar 2


 T T


 ||-12p10h12p0h10h12-19p12p0h10h12p0h10h12-17p12p|


 

 
 |o----------------------------------------------|
 ||----------------------------------------------|
 ||----------------------------------------------|
 |o----------------------------------------------|
 ||----------------------------------------------|

 


 |


 |Guitar 1


 

 
 ||---------------------------------|
 |o---------------------------------|
 ||---------------------------------|
 ||---------------------------------|
 |o-7---------------5---------------|
 ||-7---------------5---------------|

 


 


 Guitar 2


 T T


 |-0h10h12p0h10h12-20p12p0h10h12p0h10h12-19/20p||


 

 
 |---------------------------------------------o|
 |---------------------------------------------||
 |---------------------------------------------||
 |---------------------------------------------o|
 |---------------------------------------------||

 


 |


 |Guitar 1


 

 
 |---------------------------------||
 |---------------------------------o|
 |---------------------------------||
 |---------------------------------||
 |-3---------------2---------------o|
 |-3---------------2---------------||

 


 


 Guitar 2


 T T


 |-12p10h12p0h10h12-19p12p0h10h12p0h10h12-17p12-|


 

 
 |----------------------------------------------|
 |----------------------------------------------|
 |----------------------------------------------|
 |----------------------------------------------|
 |----------------------------------------------|

 


 |


 |Guitar 1


 

 
 |---------------------------------|
 |---------------------------------|
 |---------------------------------|
 |-2-------------------------------|
 |-2-------------------------------|
 |-2-------------------------------|

 


 


 Guitar 2


 T T T


 |-12p10h12p0h10h12-20p12-19p10h12p0h10h12-19p12-|


 

 
 |-----------------------------------------------|
 |-----------------------------------------------|
 |-----------------------------------------------|
 |-----------------------------------------------|
 |-----------------------------------------------|

 


 |


 |Guitar 1


 

 
 |---------------------------------|
 |---------------------------------|
 |---------------------------------|
 |-(2)-----------------------------|
 |-(2)-------------------------2-2-|
 |-(2)-------------------------2-2-|


Important: The song above is NOT stored on the Chordie server. The original song is hosted at www.azchords.com. Chordie works as a search engine and provides on-the-fly formatting. Chordie does not index songs against artists'/composers' will. To remove this song please click here.

This song is displayed as text-only. Transposing and tuning is only available for chordpro-songs.
Rate #1 of 1 versions

Login - add to songbook

SHARE PAGE  




You need to log in to post comments