Guitar Tabs, Chords and Lyrics
Server problems seems to be fixed. Chordie has been experiencing problems with songs disappearing. These issues now seems to be fixed, but still verifying the fix. If you find anything strange, please email admin@chordie.com.


Vim  Machine Head

 

VIM
As recorded by Machine Head
(From the 2003 Album THROUGH THE ASHES OF EMPIRES)
Words by Flynn, Duce
Music by Flynn, McClain
Gtr I (B F# B E G# C#) - 'Robert Flynn'
Gtr II (B F# B E G# C#) - 'Phil Demmel'
Intro
Q=142
N.C.
[4/4] Gtrs I, II[5/4]
Wx3 H. E E +S E S
 
 |------------|-----------------------|
 |------------|-----------------------|
 |------------|-----------------------|
 |------------|-----------------------|
 |------------|-----------------------|
 |------------|-----------3-(3)s17s3\-|

[C5] [Eb5] 
[4/4] Q Q E E E E Q Q E E E E Q Q E E E E E E E E E E E E
 
 ||------------------|-----------------|-----------------|------------------|
 ||o-----------------|-----------------|-----------------|------------------|
 ||------------------|-----------------|-----------------|-5-5-5-5-8-8-8-8--|
 ||------------------|-----------------|-----------------|-5-5-5-5-8-8-8-8--|
 ||o-----------------|-----------------|-----------------|-3-3-3-3-6-6-6-6--|
 ||--0--13\--0-1-0-1-|-0--13\--0-6-5-6-|-0--13\--0-1-0-1-|------------------|

1.
N.C. C5 Eb5
PM--|
Q Q E E E E Q Q E E E E Q Q E E E E E E E E E E E E
 
 |-----------------|-----------------|-----------------|-------------------||
 |-----------------|-----------------|-----------------|------------------o||
 |-----------------|-----------------|-----------------|-5-5-5-5-----------||
 |-----------------|-----------------|-----------------|-5-5-5-5-1---------||
 |-----------------|-----------------|-----------------|-3-3-3-3-1-1-1-1--o||
 |-0--13\--0-1-0-1-|-0--13\--0-6-5-6-|-0--13\--0-1-0-1-|---------1-1-1-1---||

2.
N.C. C5 Eb5
Gtr I
PM--|
Q Q E E E E Q Q E E E E Q Q E E E E E E E E E E E E
 
 |-----------------|-----------------|-----------------|------------------||
 |-----------------|-----------------|-----------------|------------------||
 |-----------------|-----------------|-----------------|-5-5-5-5----------||
 |-----------------|-----------------|-----------------|-5-5-5-5-1--------||
 |-----------------|-----------------|-----------------|-3-3-3-3-1-1-1-1--||
 |-0--13\--0-1-0-1-|-0--13\--0-6-5-6-|-0--13\--0-1-0-1-|---------1-1-1-1--||

|
| Gtr II
| PM--|
| Q Q E E E E Q Q E E E E Q Q E E E E E E E E E E E E
 
 |-----------------|-----------------|-----------------|------------------||
 |-----------------|-----------------|-----------------|------------------||
 |-----------------|-----------------|-----------------|-5-5-5-5----------||
 |-----------------|-----------------|-----------------|-5-5-5-5-1--------||
 |-----------------|-----------------|-----------------|-3-3-3-3-1-1-1-1--||
 |-0--17\--0-1-0-1-|-0--17\--0-6-5-6-|-0--17\--0-1-0-1-|---------1-1-1-1--||

Verse
$
[D5]  
[5/4] W +Q +W +Q
 
 |---------------|-----------------|
 |---------------|-----------------|
 |---------------|-----------------|
 |-0--------(0)--|-(0)--------(0)--|
 |-0--------(0)--|-(0)--------(0)--|
 |-0--------(0)--|-(0)--------(0)--|

|
| W +Q +W +Q
 
 |---------------|-----------------|
 |---------------|-----------------|
 |---------------|-----------------|
 |-0--------(0)--|-(0)--------(0)--|
 |-0--------(0)--|-(0)--------(0)--|
 |-0--------(0)--|-(0)--------(0)--|
 PM------|

W +Q E E E E E E E E E E
 
 |---------------|---------------------------------|
 |---------------|---------------------------------|
 |---------------|-----------<2>-<3>-<4>-<5>-<7>---|
 |-0--------(0)--|---------------------------------|
 |-0--------(0)--|-0-0-0-0-0-----------------------|
 |-0--------(0)--|-0-0-0-0-0-----------------------|

|
 
 | PM------------------------|

| W +Q E E E E E E E E E E
 
 |---------------|---------------------------------|
 |---------------|---------------------------------|
 |---------------|---------------------------------|
 |-0--------(0)--|---------------------------------|
 |-0--------(0)--|-0-0-0-0-0--0---0---0---0---0----|
 |-0--------(0)--|-0-0-0-0-0--0---0---0---0---0----|

1. 2.
D5EbE5F5N.D5EbE5F5N.C.D5EbE5F5N.D5EbE5F5N.C. D5EbE5F5N.D5EbAbG5F5
Gtrs I, II
PM PM PM PM PM
[E] [E] [E] [E] [E] [E] [E] [E] [E] [E] [E] [E] [E] [E] [E] [E] [E] [E] [E] [E] [E] [E] [E] [E] [E] [E] [E] [E] [E] [E]  
 
 ||----------------------|----------------------||---------------------|
 ||o---------------------|---------------------o||---------------------|
 ||----------------------|----------------------||---------------------|
 ||--0-1-2-3---0-1-2-3---|-0-1-2-3---0-1-2-3----||-0-1-2-3---0-1-6-5-3-|
 ||o-0-1-2-3---0-1-2-3---|-0-1-2-3---0-1-2-3---o||-0-1-2-3---0-1-6-5-3-|
 ||--0-1-2-3-0-0-1-2-3-0-|-0-1-2-3-0-0-1-2-3-0--||-0-1-2-3-0-0-1-6-5-3-|

D5EbE5F5 N.D5EbE5F5 N.C.D5EbE5F5 N.D5EbE5F5 N.C.D5EbE5F5N.D5EbE5F5N.C.D5EbE5F5N.D5EbAbG5F5
[E] [E] [E] [E] [E] [E] [E] [E] [E] [E] [E] [E] [E] [E] [E] [E] [E] [E] [E] [E]  
 
 |-----------------------|-----------------------|
 |-----------------------|-----------------------|
 |-----------------------|-----------------------|
 |-7-8-9-10-x-7-8-9-10-x-|-7-8-9-10-x-7-8-9-10-x-|
 |-5-6-7--8-x-5-6-7--8-x-|-5-6-7--8-x-5-6-7--8-x-|
 |-----------------------|-----------------------|

PM PM PM
[E] [E] [E] [E] [E] [E] [E] [E] [E] [E] [E] [E] [E] [E] [E] [E] [E] [E] [E] [E]  
 
 |---------------------|---------------------||
 |---------------------|---------------------||
 |---------------------|---------------------||
 |-0-1-2-3---0-1-2-3---|-0-1-2-3---0-1-6-5-3-||
 |-0-1-2-3---0-1-2-3---|-0-1-2-3---0-1-6-5-3-||
 |-0-1-2-3-0-0-1-2-3-0-|-0-1-2-3-0-0-1-6-5-3-||

Pre-Chorus
N.C.
[4/4]  
 
 PM--------------------------------| PM PM PM PM PM

S S S S S S S S S S S S S S S S S E S E S E S E S E S
 
 ||----------------------------------|------------------------||
 ||o---------------------------------|-----------------------o||
 ||----------------------------------|------------------------||
 ||----------------------------------|------------------------||
 ||o---------------------------------|-----------------------o||
 ||--6-6-6-6-6-6-6-6-6-6-6-6-6-6-6-6-|-0-3-0-3-0-3-0-3-0-3-0--||
 PM--------------------------------| PM PM PM PM PM

S S S S S S S S S S S S S S S S S E S E S E S E S E S
 
 |---------------------------------|-----------------------|
 |---------------------------------|-----------------------|
 |---------------------------------|-----------------------|
 |---------------------------------|-----------------------|
 |---------------------------------|-------2-------2-------|
 |-6-6-6-6-6-6-6-6-6-6-6-6-6-6-6-6-|-0-3-0---0-3-0---0-3-0-|

[AbB5AbB5AbB5AbB5]  
 
 PM----------------------------|

S S S S S S S S S S S S S S S S S E S E S E S E Q
 
 |---------------------------------|---------------------||
 |---------------------------------|---------------------||
 |---------------------------------|---------------------||
 |---------------------------------|-6-8-6-8-6-8-6-8-8\--||
 |---------------------------------|-6-8-6-8-6-8-6-8-8\--||
 |-6-6-6-6-6-6-6-6-6-6-6-6-6-6-6-6-|-6-8-6-8-6-8-6-8-8\--||

Chorus
N.C. C5 Eb5
Q Q E E E E Q Q E E E E Q Q E E E E E E E E E E E E
 
 |-----------------|-----------------|-----------------|------------------|
 |-----------------|-----------------|-----------------|------------------|
 |-----------------|-----------------|-----------------|-5-5-5-5-8-8-8-8--|
 |-----------------|-----------------|-----------------|-5-5-5-5-8-8-8-8--|
 |-----------------|-----------------|-----------------|-3-3-3-3-6-6-6-6--|
 |-0--13\--0-1-0-1-|-0--13\--0-6-5-6-|-0--13\--0-1-0-1-|------------------|

D.S.
N.C. C5 Eb5
PM--|
Q Q E E E E Q Q E E E E Q Q E E E E E E E E E E E E
 
 |-----------------|-----------------|-----------------|------------------||
 |-----------------|-----------------|-----------------|------------------||
 |-----------------|-----------------|-----------------|-5-5-5-5----------||
 |-----------------|-----------------|-----------------|-5-5-5-5-1--------||
 |-----------------|-----------------|-----------------|-3-3-3-3-1-1-1-1--||
 |-0--13\--0-1-0-1-|-0--13\--0-6-5-6-|-0--13\--0-1-0-1-|---------1-1-1-1--||

[D5]Gtr I[Ab5] [F5] [C5] [D5] [Ab5] [Eb5]
 
 PM------|

Q Q Q Q Q Q E E E E
 
 ||------------------------------|-------------------------|
 ||o-----------------------------|-------------------------|
 ||---7---------------------5----|--7----------------------|
 ||---7---------6-----3-----5----|--7-----6----------------|
 ||o--5---------6-----3-----3----|--5-----6-----1--1--1--1-|
 ||-------------6-----3----------|--------6-----1--1--1--1-|

|
| Gtr II
| E E E E E E E E E E E E E E E E
 
 ||------------------------------|-------------------------|
 ||o-15-----15-15-15-15-15-15-15-|-15-15-15-15-15-15-15-15-|
 ||--17b19==17-17-17-17-17-17-17-|-17-17-17r17-17-17r17-17-|
 ||------------------------------|-------------------------|
 ||o-----------------------------|-------------------------|
 ||------------------------------|-------------------------|

[D5] [Ab5] [F5] [C5] [D5] [Ab5] [Eb5]  
 
 PM--------|
 |----3----|

Q Q Q Q Q Q q q q
 
 |-----------------------------|------------------------------||
 |-----------------------------|-----------------------------o||
 |--7---------------------5----|--7---------------------------||
 |--7---------6-----3-----5----|--7-----6---------------------||
 |--5---------6-----3-----3----|--5-----6-----1----1----1----o||
 |------------6-----3----------|--------6-----1----1----1-----||

|
| E E E E E E E E E E E E E E E E
 
 |-----------------------------|------------------------------||
 |-15-----15-15-15-15-15-15-15-|-15-15-15-15-15-15---15---15-o||
 |-17b19==17-17-17-17-17-17-17-|-17-17-17r17-17-17r==17---17--||
 |-----------------------------|------------------------------||
 |-----------------------------|-----------------------------o||
 |-----------------------------|------------------------------||

Breakdown
Q.=166
N.C.
12/8
Gtr I
 
 PM-------------|

Q Q Q Q Q Q E E E E E E E E E E E E
 
 |-------------------|-------------------------|
 |-------------------|-------------------------|
 |-------------------|-------------------------|
 |-------------------|-------------------------|
 |-------------------|-------------5h6p5-3h5p3-|
 |-0--0--0--0--0--0--|-5h6p5-3h5p3-------------|
 PM-------------|

Q Q Q Q Q Q E E E E E E E E E E E E
 
 |-------------------|-------------------------|
 |-------------------|-------------------------|
 |-------------------|-------------------------|
 |-------------------|-------------5h6p5-3h5p3-|
 |-------------------|-5h6p5-3h5p3-------------|
 |-0--0--0--0--0--0--|-------------------------|
 PM-------------|

Q Q Q Q Q Q E E E E E E E E E E E E
 
 |-------------------|-------------------------|
 |-------------------|-------------------------|
 |-------------------|-------------7h8p7-5h7p5-|
 |-------------------|-5h6p5-3h5p3-------------|
 |-------------------|-------------------------|
 |-0--0--0--0--0--0--|-------------------------|
 PM-----------------|

Q Q Q E E E E E E Q Q Q Q Q Q
 
 |----------------------|------------------------||
 |----------------------|------------------------||
 |----------------------|-13S=12S=10--12S=10S=8--||
 |----------------------|------------------------||
 |----------------------|-11S=10S==8--10S==8S=6--||
 |-0--0--0--0-0-0-0-0-0-|------------------------||

Gtrs I, II
 
 PM-------------|

Q Q Q Q Q Q E E E E E E E E E E E E
 
 |-------------------|-------------------------|
 |-------------------|-------------------------|
 |-------------------|-------------------------|
 |-------------------|-------------------------|
 |-------------------|-------------5h6p5-3h5p3-|
 |-0--0--0--0--0--0--|-5h6p5-3h5p3-------------|
 PM-------------|

Q Q Q Q Q Q E E E E E E E E E E E E
 
 |-------------------|-------------------------|
 |-------------------|-------------------------|
 |-------------------|-------------------------|
 |-------------------|-------------5h6p5-3h5p3-|
 |-------------------|-5h6p5-3h5p3-------------|
 |-0--0--0--0--0--0--|-------------------------|
 PM-------------|

Q Q Q Q Q Q E E E E E E E E E E E E
 
 |-------------------|-------------------------|
 |-------------------|-------------------------|
 |-------------------|-------------7h8p7-5h7p5-|
 |-------------------|-5h6p5-3h5p3-------------|
 |-------------------|-------------------------|
 |-0--0--0--0--0--0--|-------------------------|

[Ab5] [G5] [F5] [G5] [F5] [Eb5]  
 
 PM-----------------|

Q Q Q E E E E E E Q Q Q Q Q Q
 
 |----------------------|------------------------||
 |----------------------|------------------------||
 |----------------------|-13S=12S=10--12S=10S=8--||
 |----------------------|-13\-12\-10--12\-10\-8--||
 |----------------------|-11S=10S==8--10S==8S=6--||
 |-0--0--0--0-0-0-0-0-0-|------------------------||

Verse
N.C.
Gtr I
 
 PM----------------------------------|

[E] [E] [E] [E] [E] [E] [E] [E] [E] [E] [E] [E] [E] [E] [E] [E] [E] [E] [E] [E] [E] [E] [E] [E]  
 
 |-------------------------|-------------------------|
 |-------------------------|-------------------------|
 |-------------------------|-------------------------|
 |-------------------------|-------------------------|
 |-------------------------|-------------------------|
 |-0-0-0-0-0-0-0-0-0-0-0-0-|-0-0-0-0-0-0-5h6p5-3h5p3-|

|
| Gtr II
 
 | PM----------------------------------|

| E E E E E E E E E E E E E E E E E E E E E E E E
 
 |-------------------------|-------------------------|
 |-------------------------|-------------------------|
 |-------------------------|-------------------------|
 |-------------------------|-------------------------|
 |-------------------------|-------------------------|
 |-0-0-0-0-0-0-0-0-0-0-0-0-|-0-0-0-0-0-0-5h6p5-3h5p3-|
 PM----------------------------------|

[E] [E] [E] [E] [E] [E] [E] [E] [E] [E] [E] [E] [E] [E] [E] [E] [E] [E] [E] [E] [E] [E] [E] [E]  
 
 |-------------------------|-------------------------|
 |-------------------------|-------------------------|
 |-------------------------|-------------------------|
 |-------------------------|-------------5h6p5-3h5p3-|
 |-------------------------|-------------------------|
 |-0-0-0-0-0-0-0-0-0-0-0-0-|-0-0-0-0-0-0-------------|

|
 
 | PM----------------------------------|

| E E E E E E E E E E E E E E E E E E E E E E E E
 
 |-------------------------|-------------------------|
 |-------------------------|-------------------------|
 |-------------------------|-------------------------|
 |-------------------------|-------------------------|
 |-------------------------|-------------5h6p5-3h5p3-|
 |-0-0-0-0-0-0-0-0-0-0-0-0-|-0-0-0-0-0-0-------------|
 PM----------------------------------|

[E] [E] [E] [E] [E] [E] [E] [E] [E] [E] [E] [E] [E] [E] [E] [E] [E] [E] [E] [E] [E] [E] [E] [E]  
 
 |-------------------------|-------------------------|
 |-------------------------|-------------------------|
 |-------------------------|-------------7h8p7-5h7p5-|
 |-------------------------|-------------------------|
 |-------------------------|-------------------------|
 |-0-0-0-0-0-0-0-0-0-0-0-0-|-0-0-0-0-0-0-------------|

|
 
 | PM----------------------------------|

| E E E E E E E E E E E E E E E E E E E E E E E E
 
 |-------------------------|-------------------------|
 |-------------------------|-------------------------|
 |-------------------------|-------------------------|
 |-------------------------|-------------5h6p5-3h5p3-|
 |-------------------------|-------------------------|
 |-0-0-0-0-0-0-0-0-0-0-0-0-|-0-0-0-0-0-0-------------|

[Ab5] [Ab5] [F5] [G5] [F5] [Eb5]  
 
 PM--------------------|

E E E E E E E E E E E E Q Q Q Q Q Q
 
 |-------------------------|------------------------|
 |-------------------------|------------------------|
 |-------------------------|-13S=12S=10--12S=10S=8--|
 |-------------------------|-13\-12\-10--12\-10\-8--|
 |-------------------------|-11S=10S==8--10S==8S=6--|
 |-0-0-0-0-0-0-0-0-0-0-0-0-|------------------------|

|
 
 | PM--------------------|

| E E E E E E E E E E E E Q Q Q Q Q Q
 
 |-------------------------|------------------------|
 |-------------------------|------------------------|
 |-------------------------|-13S=12S=10--12S=10S=8--|
 |-------------------------|-13\-12\-10--12\-10\-8--|
 |-------------------------|-11S=10S==8--10S==8S=6--|
 |-0-0-0-0-0-0-0-0-0-0-0-0-|------------------------|

N.C.
Gtrs I, II
 
 PM--------------------|

[E] [E] [E] [E] [E] [E] [E] [E] [E] [E] [E] [E] [E] [E] [E] [E] [E] [E] [E] [E] [E] [E] [E] [E]  
 
 |-------------------------|-------------------------|
 |-------------------------|-------------------------|
 |-------------------------|-------------------------|
 |-------------------------|-------------------------|
 |-------------------------|-------------5h6p5-3h5p3-|
 |-0-0-0-0-0-0-0-0-0-0-0-0-|-5h6p5-3h5p3-------------|
 PM--------------------|

[E] [E] [E] [E] [E] [E] [E] [E] [E] [E] [E] [E] [E] [E] [E] [E] [E] [E] [E] [E] [E] [E] [E] [E]  
 
 |-------------------------|-------------------------|
 |-------------------------|-------------------------|
 |-------------------------|-------------------------|
 |-------------------------|-------------5h6p5-3h5p3-|
 |-------------------------|-5h6p5-3h5p3-------------|
 |-0-0-0-0-0-0-0-0-0-0-0-0-|-------------------------|
 PM--------------------|

[E] [E] [E] [E] [E] [E] [E] [E] [E] [E] [E] [E] [E] [E] [E] [E] [E] [E] [E] [E] [E] [E] [E] [E]  
 
 |-------------------------|-------------------------|
 |-------------------------|-------------------------|
 |-------------------------|-------------7h8p7-5h7p5-|
 |-------------------------|-5h6p5-3h5p3-------------|
 |-------------------------|-------------------------|
 |-0-0-0-0-0-0-0-0-0-0-0-0-|-------------------------|

[Ab5] [G5] [F5] [G5] [F5] [Eb5]  
 
 PM--------------------|

E E E E E E E E E E E E Q Q Q Q Q Q
 
 |-------------------------||--------------------------||
 |-------------------------||o------------------------o||
 |-------------------------||--13S=12S=10--12S=10S=8---||
 |-------------------------||--13\-12\-10--12\-10\-8---||
 |-------------------------||o-11S=10S==8--10S==8S=6--o||
 |-0-0-0-0-0-0-0-0-0-0-0-0-||--------------------------||

N.C.
Gtr I
 
 PM----------------------------

[E] [E] [E] [E] [E] [E] [E] [E] [E] [E] [E] [E]  
 
 |-------------------------------|
 |-------------------------------|
 |-------------------------------|
 |-------------------------------|
 |-11-11-10-10-8-8-10-10-8-8-6-6-|
 |-------------------------------|

|
| Gtr II
 
 | PM----------------------------

| E E E E E E E E E E E E
 
 |-------------------------------|
 |-------------------------------|
 |-------------------------------|
 |-------------------------------|
 |-11-11-10-10-8-8-10-10-8-8-6-6-|
 |-------------------------------|
 -----------------------------|

E E E E E E E E E E E E Q Q W
 
 |-------------------------------|--------------------||
 |-------------------------------|--------------------||
 |-------------------------------|--------------------||
 |-------------------------------|--------0-----------||
 |-11-11-10-10-8-8-10-10-8-8-6-6-|--------0-----------||
 |-------------------------------|--------0-----------||

|
| \7____/
 
 |-----------------------------|

| E E E E E E E E E E E E a +W.
 
 |-------------------------------|--------------------||
 |-------------------------------|-15---(15)----------||
 |-------------------------------|--------------------||
 |-------------------------------|--------------------||
 |-11-11-10-10-8-8-10-10-8-8-6-6-|--------------------||
 |-------------------------------|--------------------||

Solo (Demmel)
[E5] E. S E. S E. S E. S E. S E. S
 
 |---------------------------------|
 |---------------------------------|
 |---------------------------------|
 |--2----2----2-----2----2----2----|
 |--2----2----2-----2----2----2----|
 |--2----2----2-----2----2----2----|

|
| ~~~
| H. H.
 
 |---------------------------------|
 |-17--------------17--------------|
 |---------------------------------|
 |---------------------------------|
 |---------------------------------|
 |---------------------------------|

[D5] E. S E. S E. S [F5] E. S E. S E. S
 
 |---------------------------------------------------|
 |---------------------------------------------------|
 |---------------------------------------------------|
 |--7--------7-------7------10-------10------10------|
 |--5--------5-------5-------8--------8-------8------|
 |---------------------------------------------------|

|
| E E E E E E E E E E E E
 
 |---------------------------------------------------|
 |-15-----------------------15-----------------------|
 |-----16p==14h16p==14h16-------16p==14h16p==14h16---|
 |---------------------------------------------------|
 |---------------------------------------------------|
 |---------------------------------------------------|

[E5] E. S E. S E. S E. S E. S E. S
 
 |---------------------------------------|
 |---------------------------------------|
 |---------------------------------------|
 |--2----2--------2-----2-----2-----2----|
 |--2----2--------2-----2-----2-----2----|
 |--2----2--------2-----2-----2-----2----|

|
| ~~~
| Q. Q. Q Q Q
 
 |---------------------------15----17----|
 |-17-------17\--------17----------------|
 |---------------------------------------|
 |---------------------------------------|
 |---------------------------------------|
 |---------------------------------------|

[D5] E. S E. S E. S [C5] E. S E. S E. S
 
 |----------------------------------------------------------|
 |----------------------------------------------------------|
 |----------------------------------------------------------|
 |--7-------7-----------7--------5-------5----------5-------|
 |--5-------5-----------5--------3-------3----------3-------|
 |----------------------------------------------------------|

|
| Q. +E +E E Q. +E E E
 
 |-17b19=======(17)r==(17)-15---17b19=======(17)r==17--15---|
 |----------------------------------------------------------|
 |----------------------------------------------------------|
 |----------------------------------------------------------|
 |----------------------------------------------------------|
 |----------------------------------------------------------|

[E5] E. S E. S E. S E. S E. S E. S
 
 |---------------------------------------------------------------|
 |---------------------------------------------------------------|
 |---------------------------------------------------------------|
 |--2----------2---------2---------2----------2---------2--------|
 |--2----------2---------2---------2----------2---------2--------|
 |--2----------2---------2---------2----------2---------2--------|

|
 
 | |-------6--------| |-------6-------| |------6-------|

| E E E E E E E E E E E E E E E E E E
 
 |-19p15------19p15---------x-x---17p15------17p15---------x-x---|
 |-------17---------17---x--------------15---------15---x--------|
 |---------------------------------------------------------------|
 |---------------------------------------------------------------|
 |---------------------------------------------------------------|
 |---------------------------------------------------------------|

[D5] E. S E. S E. S [F5] E. S E. S E. S
 
 |------------------------------------------------------------------------|
 |------------------------------------------------------------------------|
 |------------------------------------------------------------------------|
 |--7----------7----------7---------10-----------10----------10-----------|
 |--5----------5----------5----------8------------8-----------8-----------|
 |------------------------------------------------------------------------|

|
 
 | |-------6--------| |--------6--------| |--------6---------|

| E E E E E E E E E E E +E E E E +E E E
 
 |-17p14------17p14------14h17-14h==15p14-(14)---14h15p14---(14)----------|
 |-------15---------15-------------------------------------------18-17----|
 |------------------------------------------------------------------------|
 |------------------------------------------------------------------------|
 |------------------------------------------------------------------------|
 |------------------------------------------------------------------------|

[E5] E. S E. S E. S E. S E. S E. S
 
 |---------------------------------------------------------|
 |---------------------------------------------------------|
 |---------------------------------------------------------|
 |--2--------2---------2--------2--------2---------2-------|
 |--2--------2---------2--------2--------2---------2-------|
 |--2--------2---------2--------2--------2---------2-------|

|
| E E E S S E E E E E S S E E
 
 |-15------------------------------------------------------|
 |-----17---15--17p15-15-------15--------------------------|
 |------------------------16-------16---14--16p14----------|
 |------------------------------------------------17--16---|
 |---------------------------------------------------------|
 |---------------------------------------------------------|

[Ab5Bb5] E Q Q. [Ab5] E [Bb5]Q Q.
 
 |---------------------------------------|
 |---------------------------------------|
 |---------------------------------------|
 |--6--8-----8---------6----8--8---------|
 |--6--8-----8---------6----8--8---------|
 |--6--8-----8---------6----8--8---------|

|
| E E E E E E H +Q
 
 |--------------------17b19-------(17)---|
 |-----------------14--------------------|
 |-14----16-14--16-----------------------|
 |----17---------------------------------|
 |---------------------------------------|
 |---------------------------------------|

[E5]E. S E. S E. S E. S E. S E. S
 
 |-------------------------------------|
 |-------------------------------------|
 |-------------------------------------|
 |-2-----2-----2-----2-----2-----2-----|
 |-2-----2-----2-----2-----2-----2-----|
 |-2-----2-----2-----2-----2-----2-----|

|
| E E E E E E E E E E E E
 
 |-7p0---7p0---8p0---7p0---7p0---8p0---|
 |-------------------------------------|
 |-------------------------------------|
 |-------------------------------------|
 |-------------------------------------|
 |-------------------------------------|

[D5] E. S E. S E. S [F5] E. S E. S E. S
 
 |-------------------------------------------------|
 |-------------------------------------------------|
 |-------------------------------------------------|
 |--7-------7-------7------10------10------10------|
 |--5-------5-------5-------8-------8-------8------|
 |-------------------------------------------------|

|
| T T T T T T
| E E E E E E E E E E E E
 
 |-19p12---19p12---20p12---19p12---19p12---20p12---|
 |-------------------------------------------------|
 |-------------------------------------------------|
 |-------------------------------------------------|
 |-------------------------------------------------|
 |-------------------------------------------------|

[E5] E. S E. S E. S E. S E. S E. S
 
 |-------------------------------------------------------------------------|
 |-------------------------------------------------------------------------|
 |-------------------------------------------------------------------------|
 |--2-----------2-----------2-----------2-----------2-----------2----------|
 |--2-----------2-----------2-----------2-----------2-----------2----------|
 |--2-----------2-----------2-----------2-----------2-----------2----------|

|
 
 | |--------6---------| |--------6---------| |--------6---------|

| E E E E E E E E E E E E E E E E E E
 
 |-20--19-20---19--19-20---19--19-20---19--19-20---19--20-19---19--19-22---|
 |-------------------------------------------------------------------------|
 |-------------------------------------------------------------------------|
 |-------------------------------------------------------------------------|
 |-------------------------------------------------------------------------|
 |-------------------------------------------------------------------------|

[D5] E. S E. S E. S [C5] E. S E. S E. S
 
 |---------------------------------------|
 |---------------------------------------|
 |---------------------------------------|
 |--7------7-----7-----5----5------5-----|
 |--5------5-----5-----3----3------3-----|
 |---------------------------------------|

|
| ~~~~~ ~~~
| H Q H +Q
 
 |-22b24---------------------------------|
 |--------------19----17---------(17)\---|
 |---------------------------------------|
 |---------------------------------------|
 |---------------------------------------|
 |---------------------------------------|

[E5] E. S E. S E. S E. S E. S E. S
 
 |-------------------------------------------------------|
 |-------------------------------------------------------|
 |-------------------------------------------------------|
 |--2--------2--------2--------2--------2--------2-------|
 |--2--------2--------2--------2--------2--------2-------|
 |--2--------2--------2--------2--------2--------2-------|

|
| E S S E E E E E S S E E E E
 
 |-------------------------------------------------------|
 |-------------------------------------------------------|
 |-11--12p11p9--11------------11--12p11p9--11------------|
 |-------------------12--11---------------------12--11---|
 |-------------------------------------------------------|
 |-------------------------------------------------------|

[D5] E. S E. S E. S [F5] E. S E. S E. S
 
 |--------------------------------------------------------|
 |--------------------------------------------------------|
 |--------------------------------------------------------|
 |--7---------7--------7-------10-------10-------10-------|
 |--5---------5--------5--------8--------8--------8-------|
 |--------------------------------------------------------|

|
| E S S E E E E E E E E E E
 
 |--------------------------------------------------------|
 |-12--13p12p10--12------------12--13---12--10---12--13---|
 |--------------------12--11------------------------------|
 |--------------------------------------------------------|
 |--------------------------------------------------------|
 |--------------------------------------------------------|

[E5] E. S E. S E. S E. S E. S E. S
 
 |-------------------------------------------------------|
 |-------------------------------------------------------|
 |-------------------------------------------------------|
 |--2--------2--------2--------2--------2--------2-------|
 |--2--------2--------2--------2--------2--------2-------|
 |--2--------2--------2--------2--------2--------2-------|

|
| E E E E E E E E E E E E
 
 |----------------------------------------------15--17---|
 |-17--19---15--17---19--20---19--20---17--19------------|
 |-----------------------16-------16------------16--17---|
 |-17--19---16--17---19-------19-------17--19------------|
 |-------------------------------------------------------|
 |-------------------------------------------------------|

[E] [E] [E] [E] [E] [E] [E] [E] [E] [E] [E] [E] 
[Ab5Bb5] E Q Q. [Ab5Bb5] E Q Q.
 
 |----------------------------------------||
 |----------------------------------------||
 |----------------------------------------||
 |--6--8-----8---------6--8-----8---------||
 |--6--8-----8---------6--8-----8---------||
 |--6--8-----8---------6--8-----8---------||

|
| E E E E E E E E E E E E
 
 |-15-17----15--17-19-17-19-15-17--17-19--||
 |-------19-------------------------------||
 |-16-17----16--17-19-17-19-16-17--17-19--||
 |-------19-------------------------------||
 |----------------------------------------||
 |----------------------------------------||

[E] [E] [E] [E] [E] [E] [E] [E] [E] [E] [E] [E] 
Solo (Flynn - With Wah)
[F#5] H. +H.
 
 |--------------------------------------------------------------|
 |-17b19--------------------------(17)--------------------------|
 |--------------------------------------------------------------|
 |--------------------------------------------------------------|
 |--------------------------------------------------------------|
 |--------------------------------------------------------------|

|
| E. +S E. +S E. +S E. +S E. +S E. +S
 
 |-21----(21)-(21)-(21)-(21)-(21)-(21)-(21)-(21)-(21)-(21)-(21)-|
 |--------------------------------------------------------------|
 |--------------------------------------------------------------|
 |--4-----------4---------4---------4---------4---------4-------|
 |--4-----------4---------4---------4---------4---------4-------|
 |--4-----------4---------4---------4---------4---------4-------|

[E5] H +Q [G5] H +Q
 
 |------------------------------------------|
 |-19b20--------(19)---20b22---------(20)---|
 |------------------------------------------|
 |------------------------------------------|
 |------------------------------------------|
 |------------------------------------------|

|
| E. S E. S E. S E. S E. S E. S
 
 |------------------------------------------|
 |------------------------------------------|
 |------------------------------------------|
 |--9------9------9----12------12-----12----|
 |--7------7------7----10------10-----10----|
 |------------------------------------------|

[F#5] H. +H. [E5] H +Q [D5] H +Q
 
 |------------------------------------|-----------------------------------------|
 |-17b19-------------(17)-------------|-19b20--------(19)---15b17--------(15)---|
 |------------------------------------|-----------------------------------------|
 |------------------------------------|-----------------------------------------|
 |------------------------------------|-----------------------------------------|
 |------------------------------------|-----------------------------------------|

|
| E. S E. S E. S E. S E. S E. S E. S E. S E. S E. S E. S E. S
 
 |------------------------------------|-----------------------------------------|
 |------------------------------------|-----------------------------------------|
 |------------------------------------|-----------------------------------------|
 |--4------4----4------4----4----4----|--9------9------9-----7------7------7----|
 |--4------4----4------4----4----4----|--7------7------7-----5------5------5----|
 |--4------4----4------4----4----4----|-----------------------------------------|

[F#5]  
[E] [E] [E] [E] [E] [E] [E] [E] [E] [E] [E] [E]  
 
 |-19--15---18-------15-------19--15---18-------15-------|
 |--------------19-------17----------------19-------17---|
 |-------------------------------------------------------|
 |-------------------------------------------------------|
 |-------------------------------------------------------|
 |-------------------------------------------------------|

|
| E. S E. S E. S E. S E. S E. S
 
 |-------------------------------------------------------|
 |-------------------------------------------------------|
 |-------------------------------------------------------|
 |--4--------4--------4--------4--------4--------4-------|
 |--4--------4--------4--------4--------4--------4-------|
 |--4--------4--------4--------4--------4--------4-------|

[E5] [G5]  
[E] [E] [E] [E] [E] [E] [E] [E] [E] [E] [E] [E]  
 
 |-19--15---18-------15-------19--15---18-----------------|
 |--------------19-------17----------------19---15--17----|
 |--------------------------------------------------------|
 |--------------------------------------------------------|
 |--------------------------------------------------------|
 |--------------------------------------------------------|

|
| E. S E. S E. S E. S E. S E. S
 
 |--------------------------------------------------------|
 |--------------------------------------------------------|
 |--------------------------------------------------------|
 |--9--------9--------9-------12-------12-------12--------|
 |--7--------7--------7-------10-------10-------10--------|
 |--------------------------------------------------------|

[F#5]  
[E] [E] [E] [E] [E] [E] [E] [E] [E] [E] [E] [E]  
 
 |-------------------------------------------------------|
 |-------------------------------------10--12------------|
 |--------------11------------11--12------------12--11---|
 |-11--12---14-------12--14------------------------------|
 |-------------------------------------------------------|
 |-------------------------------------------------------|

|
| E. S E. S E. S E. S E. S E. S
 
 |-------------------------------------------------------|
 |-------------------------------------------------------|
 |-------------------------------------------------------|
 |--4--------4--------4--------4--------4--------4-------|
 |--4--------4--------4--------4--------4--------4-------|
 |--4--------4--------4--------4--------4--------4-------|

[G#5G5] E E E Q. [G#5] +Q. [G5] Q.
 
 |-------12-14b17=====(14)r=========|
 |-14-15----------------------------|
 |----------------------------------|
 |----------------------------x\----|
 |----------------------------------|
 |----------------------------------|

|
| E Q Q E E Q Q E
 
 |----------------------------------|
 |----------------------------------|
 |----------------------------------|
 |--6--5-----5------5---6--5--5---5-|
 |--4--3-----3------3---4--3--3---3-|
 |----------------------------------|

[F#5] ~~~~~~~~~~~~~~~
Q. +Q. +H.
 
 |----------------------------------------|
 |----------------------------------------|
 |----------------------------------------|
 |-9b11=======(9)--------(9)r-------------|
 |----------------------------------------|
 |----------------------------------------|

|
| E. S E. S E. S E. S E. S E. S
 
 |----------------------------------------|
 |----------------------------------------|
 |----------------------------------------|
 |-4-------4--------4-----4-----4----4----|
 |-4-------4--------4-----4-----4----4----|
 |-4-------4--------4-----4-----4----4----|

[E5] ~~~~ [G5] ~~~~
Q. +Q. Q. +Q.
 
 |-------------------------------------------------|
 |-------------------------------------------------|
 |-------------------------------------------------|
 |-11b12------(11)--------12b14-------(12)---------|
 |-------------------------------------------------|
 |-------------------------------------------------|

|
| E. S E. S E. S E. S E. S E. S
 
 |-------------------------------------------------|
 |-------------------------------------------------|
 |-------------------------------------------------|
 |--9------9---------9----12------12---------12----|
 |--7------7---------7----10------10---------10----|
 |-------------------------------------------------|

[F#5] ~~~~~~~~~~~~~~~
Q. +Q. +H.
 
 |----------------------------------------|
 |----------------------------------------|
 |-9b11=======(9)--------(9)r-------------|
 |----------------------------------------|
 |----------------------------------------|
 |----------------------------------------|

|
| E. S E. S E. S E. S E. S E. S
 
 |----------------------------------------|
 |----------------------------------------|
 |----------------------------------------|
 |-4-------4--------4-----4-----4----4----|
 |-4-------4--------4-----4-----4----4----|
 |-4-------4--------4-----4-----4----4----|

[E5] ~~~~ [D5] ~~~~
Q. +Q. Q. +Q.
 
 |-----------------------------------------------|
 |-----------------------------------------------|
 |-12b14------(12)--------14b16------(14)--------|
 |-----------------------------------------------|
 |-----------------------------------------------|
 |-----------------------------------------------|

|
| E. S E. S E. S E. S E. S E. S
 
 |-----------------------------------------------|
 |-----------------------------------------------|
 |-----------------------------------------------|
 |--9------9---------9-----7------7---------7----|
 |--7------7---------7-----5------5---------5----|
 |-----------------------------------------------|

[F#5]  
[E] [E] [E] [E] [E] [E] [E] [E] [E] [E] [E] [E]  
 
 |-22p21---21--21---21--21---22p21---21--21---21--21---|
 |-----------------------------------------------------|
 |-----------------------------------------------------|
 |-----------------------------------------------------|
 |-----------------------------------------------------|
 |-----------------------------------------------------|

|
| E. S E. S E. S E. S E. S E. S
 
 |-----------------------------------------------------|
 |-----------------------------------------------------|
 |-----------------------------------------------------|
 |--4-------4--------4--------4-------4--------4-------|
 |--4-------4--------4--------4-------4--------4-------|
 |--4-------4--------4--------4-------4--------4-------|

[E5] [G5]  
[E] [E] [E] [E] [E] [E] [E] [E] [E] [E] [E] [E]  
 
 |-22p21---21--21---21--21---22p21---21--21---21--21----|
 |------------------------------------------------------|
 |------------------------------------------------------|
 |------------------------------------------------------|
 |------------------------------------------------------|
 |------------------------------------------------------|

|
| E. S E. S E. S E. S E. S E. S
 
 |------------------------------------------------------|
 |------------------------------------------------------|
 |------------------------------------------------------|
 |--9-------9--------9-------12------12-------12--------|
 |--7-------7--------7-------10------10-------10--------|
 |------------------------------------------------------|

[F#5] E E E E E E H.
 
 |-22p21---21--21---21--21---24b26-------------|
 |---------------------------------------------|
 |---------------------------------------------|
 |---------------------------------------------|
 |---------------------------------------------|
 |---------------------------------------------|

|
| E. S E. S E. S E. S E. S E. S
 
 |---------------------------------------------|
 |---------------------------------------------|
 |---------------------------------------------|
 |--4-------4--------4--------4------4----4----|
 |--4-------4--------4--------4------4----4----|
 |--4-------4--------4--------4------4----4----|

[G#5] ~~~[G5]~ [G#5] [G5] ~~~~
+H. Q. +Q S S
 
 |-(24)---------24b26----(24)--24p21--|
 |------------------------------------|
 |------------------------------------|
 |------------------------------------|
 |------------------------------------|
 |------------------------------------|

|
| E Q Q E E Q Q E
 
 |------------------------------------|
 |------------------------------------|
 |------------------------------------|
 |---6--5--5--5--6----5----5----5-----|
 |---4--3--3--3--4----3----3----3-----|
 |------------------------------------|

[G#5] [G5] ~~~~ [G#5] [G5] ~~~~
Q. +Q S S Q. +Q S S
 
 |-24b26----(24)--24p21-24b26----(24)--24p21-|
 |-------------------------------------------|
 |-------------------------------------------|
 |-------------------------------------------|
 |-------------------------------------------|
 |-------------------------------------------|

|
| E Q Q E E Q Q E
 
 |-------------------------------------------|
 |-------------------------------------------|
 |-------------------------------------------|
 |--6----5----5----5-----6----5----5----5----|
 |--4----3----3----3-----4----3----3----3----|
 |-------------------------------------------|

[G#5] [G5] [G#5] [G5] [G#5G5] ~~~~~~~~~~[G#G5]~~~~~~~~~
H. +H. W +Q +Q
 
 |-24b28==========(24)r========|=24-------------(24)---(24)\----||
 |-----------------------------|--------------------------------||
 |-----------------------------|--------------------------------||
 |-----------------------------|--------------------------------||
 |-----------------------------|--------------------------------||
 |-----------------------------|--------------------------------||

|
| E Q Q E E Q Q E E Q Q E E Q Q E
 
 |-----------------------------|--------------------------------||
 |-----------------------------|--------------------------------||
 |-----------------------------|--------------------------------||
 |--6-----5--5--5---6--5--5--5-|--6-5--5--5-6-5------5-------5--||
 |--4-----3--3--3---4--3--3--3-|--4-3--3--3-4-3------3-------3--||

Important: The song above is NOT stored on the Chordie server. The original song is hosted at www.azchords.com. Chordie works as a search engine and provides on-the-fly formatting. Chordie does not index songs against artists'/composers' will. To remove this song please click here.

Text color:
Chord color:
Chord grids: 
Font size:    
Page size: 

Ab5 Bb5 C5 D5 E E5 Eb5 F#5 F5 G#5 G5
Rate #1 of 1 versions

Jango Player

Login - add to songbook

SHARE PAGE  




You need to log in to post comments