Guitar Tabs, Chords and Lyrics
Update 25:10. 13:00. Site is back up running again. Songbooks are recovered. Woring on getting search back up..


Medium Unwell   Mad Caddies

 
 E---------------------------|- -
 B---4-5---------------------| \
 G-------5-4-2-4-------------| \
 D---------------5-4-2---v---| \# main #A&B
 A---------------------------| E--|----|3X|-------|-palm-muted---|
 E---------------------------| B--|---------------|--------------|

 E-12f13---------------------| D--|---------------|--------------|
 B-12f13---------------------| A--|--------0-2-3--|2-2---2-2-2---|
 G---------------------------| /E-\|0---0-1--------|0-0---0-0-0---|
 D-------------------2-------| /
 A-------------------2-------| /
 E-------------------0-------|- -

 


 :




 

 
 E--121212111212121112121211121212121212121112121211-/palm-mute\-----|
 B---0-0-0-0-0-0-0-0-0-0-0-0-0-0-0-0-0-0-0-0-0-0-0-0-----------------|
 G-------------------------------------------------------------------|
 D-------------------------------------------------------------------|
 A---------------------------------------------------2-2---2-2-2-----|
 E---|---1---|---2---|---3---|---4---|---5---|---6---0-0---0-0-0-----|

 


 : !last time without last chord!




 

 
 E-|X-7-X-7-X-7-X-8|-8-8---------7---|
 B-|X-8-X-8-X-8-X-8|-8-8---------7---|
 G-|X-9-X-9-X-9-X-9|-9-9---------8---|
 D-|X-9-X-9-X-9-X-9|1010---7-9---9---|
 A-|---------------|1010---7-9---9---|
 E-|-----|3X|------|-8-8---5-7---7---|

 


 : X=mute (!not played 2nd time!)




 

 
 E---|-------------|2X|---------------|--------mmmmmmmm|
 B---|-------------#------------------|----------------|
 G---|------#--#--9----#---#--5-574-XX|4---------------|
 D-98|7-7910--9---9---7---5---5-574-XX|4-------24------|
 A-98|7-7910--9---7---7---5---3-352-XX|2-------02457754|
 E-76|5-57-8--7-------5---3---------XX|----------235532|

 


 :


 Then play A&BmainA&B (!end with slide down!), AmainA&B or Bmain2B (!part 4 is


 like every other part!), verseBX4 and AchorusA or BchorusB.


 : p=pull-off




 

 
 E---------------------------hp------------------------------------>-mmmmmm|
 B-----------6--v------------565----------------------------------->-------|
 G----------------------------------------------------------------->-------|
 D---79457754------------------------------------------------------>-------|
 A----------------------------------------------------------------->-999999|
 E----------------------------------------------------------------->-777777|

 




 

 
 E-----------|-------------|3X|-------------|------------------------mmmmmm|
 B-----------|-99--9--999--9---88--8--888--8|--99--9--999--9---88--8-------|
 G-----------|-õõ--õ--õõõ--õ---99--9--999--9|--õõ--õ--õõõ--õ---99--9-------|
 D---24------|-õõ--õ--õõõ--õ---99--9--999--9|--õõ--õ--õõõ--õ---99--9-------|
 A---02457754|-88--8--888--8---77--7--777--7|--88--8--888--8---77--7-999999|
 E-----235532|-Fm--------------Em-----------|------------------------777777|

 


 :


 Then play A&BchorusA&B.


 >>>>>>to next page...


 :


 :


 :


 :


 :


 MEDIUM UNWELL 2/2


 :


 [#] [main3] [#A]  

 
 E-------------------------------------------------------------------|
 B-------------------------------------------------------------------|
 G-------------------------------------------------------------------|
 D-------------------------------------------------------------------|
 A-----------0-2-3-----------0-2-3-----------0-2-3-----------0-2-3---|
 E---0---0-1---------0---0-1---------0---0-1---------0---0-1---------|

 




 

 
 E-----%%%%%%%%%%%%%%--%%%%%%%%%%%-----------------------------------|
 B-----%%%%%%%%%%%%%%--%%%%%%%%%%%-----------------------------------|
 G-----%%%%%%%%%%%%%%--%%%%%%%%%%%-----------------------------------|
 D---2-%%%%%%%%%%%%%%2-%%%%%%%%%%%-----------------------------------|
 A---2-%%%%%%%%%%%%%%2-%%%%%%%%%%%-----------0-2-3-----------0-2-3---|
 E---0-%%%%%%%%%%%%%%0-%%%%%%%%%%%\\\0---0-1---------0---0-1---------|

 


 :




 

 
 E---032-37030-23032-032-37030-2303--032-37030-230--|

 


 B---0000000000000000000000000000001000000000000000-|


 

 
 G--------/---------------/---------------/---------|
 D--------------------------------------------------|
 A--------------------------------------------------|
 E--------------------------------------------------|


Important: The song above is NOT stored on the Chordie server. The original song is hosted at www.azchords.com. Chordie works as a search engine and provides on-the-fly formatting. Chordie does not index songs against artists'/composers' will. To remove this song please click here.

This song is displayed as text-only. Transposing and tuning is only available for chordpro-songs.
Rate #1 of 3 versions

Jango Player

Login - add to songbook

SHARE PAGE  



You need to log in to post comments