Guitar Tabs, Chords and Lyrics
Update 25:10. 13:00. Site is back up running again. Songbooks are recovered. Woring on getting search back up..


Silence  Mad Caddies

 
 -------------------------------------------------------------------------------
 -------------------------------------------------------------------------------

Tuning: standard
i think this tab is pretty much close to perfect. it took me 3 f**king hours but this
great song really deserves it. and please... rate it!
intro
trumpet /2.guitar play twice its almost the same
 
 e|-7-------------------------------8-7----//-12-12-12--12-13-12--15-12--------------------|
 B|------9-6---6-8-9-6---6-8-9-6-5---------------------------------------------------------|
 G|---------------------------------------------------------------------6-5---------5-4-5--|
 D|-------------------------------------------------------------------------6-5-3---6-5-6--|

|guitar
 
 e|------1----------------------------0----------------------------------------------------|
 B|------1----------------------------0-----x-5--x-5--x-5---x-5--x-5-----------------------|
 G|------1----------------------------0-----x-5--x-5--x-5---x-5--x-5----6------------------|
 D|------3----------------------------2-----x-5--x-5--x-5---x-5--x-5----6---6--3-3---------|
 A|------3----------------------------2-----x-3--x-3--x-3---x-3--x-3----4---6--3-3---------|
 E|------1----------------------------0-------------------------------------4--1-1---------|

f e c# g#
(dont fortet its SKA)
f
Silently approaching creeping through the night *trump
 
 C *C# G# f e|-----13----------|
 Shadows below the radar hide from unsuspecting light B|---13--12--9-6---|

f
You can't see it coming but you feel it near
 
 C C# G# f e|--13-------------|
 The eminent destruction pulls you down to the fear B|----14-13-13-----|

PRE C# C
 
 CHORUS Now the fight has just begun B|-6-8-9-8-6-8--9~~8----6//12~~13~~~-|

[C#]The battle is not over Y[C]ou're scared it's been won
CHORUS f C#
Find the enemy (silent) 3x
[C]Lying in your bed find the enemy.....c.intro
f C
I can see the dark clouds looming up above the land
C C# G# f trumpet like
Picking up on the signals of connotations I don;t understand verse 1
f C
They tell me things nightmares are made of Pictures straight from hell
C C# G# f
Try to put it all in a bag by the wayside I know I will fail
REPEAT
Pre chorus and chours
BRIDGE (1:59)
"sad" trumpet
 
 e|--------------------------------------------------------------|
 B|--------------------------------------------------------------|
 G|-5~~~~~~4~~~~~~-----------------------------------------------|
 D|---------------6~~~~~5~~~~~~--------------6~~~~~~~--3~~~~~~~--|

|guitar-clean
 
 e|--8------------------x-8-8--8--x-8-8--8---x--9-9--9--x--8-8--8--|
 B|--9-----8------9-----x-8-8--8--x-8-8--8---x--9-9--9--x--9-9--9--|
 G|-10-------10---7-----x-9-9--9--x-9-9--9---x-1010-10--x-1010-10--|
 D|-10---------10-9------------------------------------------------|
 A|--8------------7------------------------------------------------|
 E|----------------------------------------------------------------|

(2:09)
"sad" trumpet like above
|second trumpet
 
 e|-7h8p7-------7h8p7-------7h8p7-------7h8p7-------7h8p7-------7h8p7---------------------------|
 B|------9-8-6-------9-8-6-------9-8-6-------9-8-6-------9-8-6-------9-8-6----6-5-6-5-6-9-8--6--|
 G|---------------------------------------------------------------------------------------------|

|guitar-clean
 
 e|--x-8-8--8----x-8-8--8---x-8-8--8----x-8-8--8-----x-8-8--8---x-8-8--8------x-9-9--9----8-----|
 B|--x-9-9--9----x-9-9--9---x-9-9--9----x-9-9--9-----x-8-8--8---x-8-8--8------x-9-9--9----9-----|
 G|--x1010-10----x1010-10---x1010-10----x1010-10-----x-9-9--9---x-9-9--9------x1010-10---10-----|
 D|--------------------------------------------------------------------------------------10-----|
 A|---------------------------------------------------------------------------------------------|
 E|---------------------------------------------------------------------------------------------|
 e|---------------------------------7--|
 B|--------------------------9-8-6--6--|
 G|-------------------------10-9-6-----|
 D|6-~~~~~~~~~~~~~8---6-5~~~~~~~-------|

|
 
 e|--9------------------8---------------------------------------------------------|
 B|--9------------------8-------------------------------------------------9---8---|
 G|-10------------------9----------6-6-6-6-6-6-6-6---5--5--5--5--5--5--5-11b-10b--|
 D|-11-----------------10----------6-6-6-6-6-6-6-6---5--5--5--5--5--5--5----------|
 A|--------------------------------4-4-4-4-4-4-4-4---3--3--3--3--3--3--3----------|
 E|-------------------------------------------------------------------------------|

Now fight just begun The is not over youre scared it has been
battle won
Repeat CHORUS
OUTRO (2:39)
 
 e|---------4--------------------------------4------|
 B|----------6-------6-8-9-6---6-8---9-8-6-5---5-6--|
 G|-------------------------------------------------|

|
 
 e|-------------------------------------------------|
 B|-------------------------------------------------|
 G|----------------------------------6-5------------|
 D|---------3--3--3--3--3--3--3--3---6-5-6-5-6-2-3--|
 A|---------3--3--3--3--3--3--3--3---4-3-6-5-6-2-3--|
 E|---------1--1--1--1--1--1--1--1-------4-3-4-0-1--|

...e-ne-myyyyyyy
if you can find some other tabs for mad caddies with trumpet on the internet- please
tell me IF YOU CAN`T - RATE THIS WITH FIVE F*****ING STARS!
================================================================

Important: The song above is NOT stored on the Chordie server. The original song is hosted at www.azchords.com. Chordie works as a search engine and provides on-the-fly formatting. Chordie does not index songs against artists'/composers' will. To remove this song please click here.

Text color:
Chord color:
Chord grids: 
Font size:    
Page size: 

C C#
Rate #2 of 2 versions

Jango Player

Login - add to songbook

SHARE PAGE  




You need to log in to post comments