Guitar Tabs, Chords and Lyrics
Update 25:10. 13:00. Site is back up running again. Songbooks are recovered. Woring on getting search back up..


Villains  Mad Caddies

 
 -------------------------------------------------------------------------------
 -------------------------------------------------------------------------------

Tuning: standard
trumpet
 
 e|--6~~~~~~~~~~~~~~~~~~~~~~----8---6---5~~~~~~~~~~~~~~~~~~~~~-----------------------------|
 B|----------------------------------------------------------------------------------------|
 G|----------------------------------------------------------------------------------------|

|guitar/banjo/pizza/whatever
 
 e|--6-6-6-6-6-6-6-6-6-6-6-6----8---6---5-5-5-5-5-5-5-5-5-5--------------------------------|
 B|--6-6-6-6-6-6-6-6-6-6-6-6----8---6---5-5-5-5-5-5-5-5-5-5--------------------------------|
 G|----------------------------------------------------------------------------------------|

Intro play 2x
 
 e|------------------------------------------5p4--4-5--------------------------------------|
 B|-----6p5--6p5-6--6-8p5--5/6---6p5--6p5-6-----6--------6-5-5-6--8-6-5--5h6----------5----|
 G|---------------------------------------------------------7------------------7-7-6-6---7-|
 D|--------------------------------------------------------------------------8-------------|
 A|-4/5-----------------------4/5--------------------4/5-----------------------------------|
 E|----------------------------------------------------------------------------------------|

| guit/banjo
 
 e|---x-5---x-5---x-5----5-5-5--x-5---x-5----8--8--8----x-5--x-5--x-5--x-5---x--6--x--5--5--|----------|
 B|---x-6---x-6---x-6----6-6-6--x-6---x-6---10-10-10----x-6--x-6--x-6--x-6---x--6--x--5--6--|----------|
 G|---x-7---x-7---x-7----7-7-7--x-7---x-7---10-10-10----x-7--x-7--x-7--x-7---x--7--x--6--7--|-------7--|
 D|---x-7---x-7---x-7----7-7-7--x-7---x-7---10-10-10----x-7--x-7--x-7--x-7---x--8--x--7--7--|-8--7--7--|
 A|---x-5---x-5---x-5----5-5-5--x-5---x-5----8--8--8----x-5--x-5--x-5--x-5---x--8--x--7--5--|-8--7--5--|
 E|------------------------5-5-----------------------------------------------x--6--x--5-----|-6--5-----|

[d] [d] [d] [d] [d] [d] [d] [d] [F] [F] [F] [d] [d] [d] [d] 
d F d Bb A d*
I hear the rumor mill is turning To try and stop it is a waste of time
d F *E|-5-5-6-8-|
Who f**ked who will be on the front page
T[C]he local air is thick with p[A]ainted l[d]ies T[C]ruth i[A]n disg[d]uise
CHORUS
g A Bb A d g
When you go out they'll be watching (eyes on you) I feel them all around
g A
Come tomorrow and they'll all start talking,
Bb C C# d --->Intro
In this little town Now watch me drown
[d]Accusations and assumptions[F]
[d]Will fill you up and start to cl[Bb]oud yo[A]ur m[d]ind
[d]The room is filled with stagnant conversatio[F]n
[C]I see right through it with disce[A]rning ey[d]es [C] Beyo[A]nd the l[d]ies
 
 --------REPEAT CHORUS--------

Outro (1:49)
 
 e|---------------------------------------------------------------------------------------------|
 B|-6p5-6p5h6--6-8-5-5/6---6p5-6p5h6--6-8-5-5/6-6p5---6p5h6--6-8-5-5/6---6p5-6p5h6--6-8-5-5/6---|
 G|---------------------------------------------------------------------------------------------|

|
 
 e|---------------------------------------------------------------------------------------------|
 B|---------------------------------------------------------------------------------------------|
 G|---7------------------5--------------------------3------------------5------------------------|
 D|---7------------------5--------------------------3------------------5------------------------|
 A|---5------------------3--------------------------1------------------3------------------------|
 E|---------------------------------------------------------------------------------------------|

[d]Feel my [C]life is [Bb]all the s[d]ame
 
 e|---------------------------------------------------------------------6---8---10--------------|
 B|-6p5-6p5h6--6-8-5-5/6---6p5-6p5h6--6-8-5-5/6-6p5---6p5h6--6-8-5-5/6--6---8---10--------------|
 G|---------------------------------------------------------------------------------------------|

|
 
 e|---------------------------------------------------------------------------------------------|
 B|---------------------------------------------------------------------------------------------|
 G|---7-------------------5-------------------------3-------------------3---5---7---------------|
 D|---7-------------------5-------------------------3-------------------3---5---7---------------|
 A|---5-------------------3-------------------------1-------------------1---3---5---------------|
 E|---------------------------------------------------------------------------------------------|

if you can find some other tabs for mad caddies with trumpet and trombone on the internet- please tell me
IF YOU CAN`T - RATE THIS TAB WITH FIVE F*****ING STARS!
==============================================================

Important: The song above is NOT stored on the Chordie server. The original song is hosted at www.azchords.com. Chordie works as a search engine and provides on-the-fly formatting. Chordie does not index songs against artists'/composers' will. To remove this song please click here.

Text color:
Chord color:
Chord grids: 
Font size:    
Page size: 

A Bb C F
Rate #3 of 3 versions

Jango Player

Login - add to songbook

SHARE PAGE  




You need to log in to post comments