Guitar Tabs, Chords and Lyrics
Server problems seems to be fixed. Chordie has been experiencing problems with songs disappearing. These issues now seems to be fixed, but still verifying the fix. If you find anything strange, please email admin@chordie.com.


A Brighter Beat  Malcolm Middleton

 
 -------------------------------------------------------------------------------
 -------------------------------------------------------------------------------

Tuning: Capo 4
intro:
 
 e|--------------------------------------------------------------|
 B|--------------------------------------------------------------|
 G|-2-2-2-2-2-2-2-2-2-2-2-2-2-2-2-2-2-2-2-2-2-2-2-2-2-2-2-2-2-2--|
 D|-2-2-2-2-2-2-2-2-2-2-2-2-2-2-2-2-2-2-2-2-2-2-2-2-2-2-2-2-2-2--|
 A|-0-0-0-0-0-0-0-0-0-0-0-0-0-0-0-0-0-0-0-0-0-0-0-0-0-0-0-0-0-0--|
 E|--------------------------------------------------------------|
 e|-----------------------------------------------------------------------|
 B|-----------------------------------------1-0---------1-3---------------|
 G|-2-2-2-2-2-2-2-2-2-2-2-2-2-2-2-2-2-2-2-2-2-2-2-2-2-2-2--2-2 2-2-2-2-2-2|
 D|-2-2-2-2-2-2-2-2-2-2-2-2-2-2-2-2-2-2-2-2-2-2-2-2-2-2-2--2-2 2-2-2-2-2-2|
 A|-0-0-0-0-0-0-0-0-0-0-0-0-0-0-0-0-0-0-0-0-0-0-0-0-0-0-0--0-0-0-0-0-0-0-0|
 E|-1-1-1-1-3-3-3-3-1-1-1-1-3-3-3-3-1-1-3-3-----1-1-3-3----1-1-3-3--------|

[Am] [C] [G] [Dm]  
 
 e|----------------------------------------------0--------------------------0-|
 B|------------1-0---------1-3--------------------1-1---1-0--0----1-0--3-1h3--|
 G|2-2-2-2-2-2-2-2-2-2-2-2-2--2-2-2-2-2-2-2-2--2---2--0-----2---0----0--------|
 D|2-2-2-2-2-2-2-2-2-2-2-2-2--2-2-2-2-2-2-2-2---2------2---------0-----0------|
 A|0-0-0-0-0-0-0-0-0-0-0-0-0--0-0-0-0-0-0-0-0-0------3------------------------|
 E|3-3-1-1-3-3-----1-1-3-3----1-1-3-3--------------------------3--------------|

[Am] [C] [G] [Dm] [Am] [C] [G] [Dm] [Am] [C] [G] [Dm]  
 
 e|-----------------------------|--------3---------------------------3--------------------|
 B|--1-1------1--1----------3-1-|--3-5-5---5-5--3-1-3-5-1------3-5-5---5-5--3-1-3-5-1-----|
 G|0-2--2--0--0---0-0-0-0-------|-------------------------2-2-----------------------------|
 D|--2---2----2----2--0--0--0-0-|---------------------------------------------------------|
 A|-0-0-----3-3-3-----2---2-----|---------------------------------------------------------|
 E|------------------3----------|---------------------------------------------------------|

[Am]Now you‚??ve go[C]ne and left [G]me and there‚??s noth[Dm]ing here
[Am]But a tenner[C] in my pocket[G] and a fridge full of [Dm]beer
[Am]There‚??s an arm[C]y around the countr[G]y, we‚??re all stuck in [Dm]our rooms
[Am]It takes a lot of prep[C]aration[G] to make a [Dm]move
[Am]Out the door
[C]Down the stairs
[G]Out the close
[Dm]Down the street
[Am]On the bus
[C]To the pub
[G]And there people [Dm]meet
[Am]But I‚??d rather[C] sit and stare and [G]wonder what might [Dm]happen there
[Am]If I could move my h[C]ead in time with[G] a brighter b[Dm]eat
Now they‚??ve gone and left us
And we‚??re not here
Just the ghosts of the people they once held dear
We‚??re an army around the country, we‚??re all stuck in our rooms
It takes a lot of desperation to make a move
Out the door
Down the stairs
Out the close
Down the street
On the bus
To the pub
And there people meet
But we‚??d rather sit and stare and wonder what just happened there
If we could move our heads in time with a brighter beat
===============================================================================

Important: The song above is NOT stored on the Chordie server. The original song is hosted at www.azchords.com. Chordie works as a search engine and provides on-the-fly formatting. Chordie does not index songs against artists'/composers' will. To remove this song please click here.

Text color:
Chord color:
Chord grids: 
Font size:    
Page size: 

Am C Dm G
Rate #1 of 1 versions

Login - add to songbook

SHARE PAGE  




You need to log in to post comments