Guitar Tabs, Chords and Lyrics
Server problems seems to be fixed. Chordie has been experiencing problems with songs disappearing. These issues now seems to be fixed, but still verifying the fix. If you find anything strange, please email admin@chordie.com.


All the Lost Tomorrows  Malena Ernman

========
Idea #1a
========
 
 e|-----0-------0---|-----------------|---------1-----1-|-------0-1-------|
 B|-------1-------1-|-----1-------1---|-------1-----1---|-----3-------3---|
 G|---0-------0-----|-------2-------0-|-----2-----2-----|---2-------2---2-|
 D|-----------------|---2-------2-----|---------2-------|-0---------------|
 A|-3-------2-------|-0---------------|---3-------------|---------3-------|
 E|-----------------|---------3-------|-1---------------|-----------------|

[C] [C/B] [Am] [C/G] [F] [F/E] [Dmadd9] [Dm/C] 
 
 e|-----------------|---------------5-|-3-----0-3-------|-------------1---|
 B|-------0-0---1---|-----3---3---3---|-----0-------0---|-----1-3-0-----3-|
 G|-----0-----0---0-|---2---5---5-----|---0-------0---0-|---0-------0-----|
 D|---5-----2-------|-3-------4-------|-2---------------|-----------------|
 A|-5---------------|-----------------|-----------------|-----------------|
 E|-----------------|-----------------|---------0-------|-3---------------|

[G/D] [Em] [C/E] [F6] [D7/F#] [Em] [G] [G7] 
========
Idea #1b
========
 
 e|-----0-------0---|-----------------|---------1-----1-|-------0-1-------|
 B|-------1-------1-|-----1-------1---|-------1-----1---|-----3-------3---|
 G|---0-------0-----|-------2-------0-|-----2-----2-----|---2-------2---2-|
 D|-----------------|---2-------2-----|---------2-------|-0---------------|
 A|-3-------2-------|-0---------------|---3-------------|---------3-------|
 E|-----------------|---------3-------|-1---------------|-----------------|

[C] [C/B] [Am] [C/G] [F] [F/E] [Dmadd9] [Dm/C] 
 
 e|-----------------|---------------5-|-3-------3-------|-----------------|
 B|-------0-0---1---|-----3---3---3---|-5---5-------5---|-----3---3-5-5-3-|
 G|-----0-----0---0-|---2---5---5-----|---5---5---5---5-|---0---0-0-0-0---|
 D|---5-----2-------|-3-------4-------|-----------------|----------------3|
 A|-5---------------|-----------------|-----------------|-----------------|
 E|-----------------|-----------------|-3---------------|-3---------------|

[G/D] [Em] [C/E] [F6] [D7/F#] [C/G] [G] 
========
Idea #2a
========
 
 e|---------0-------|-----------------|---------0-----0-|------------------|
 B|-------1-----1---|-----------------|-------1-----1---|-^6-------3---6---|
 G|-----0-----0---0-|---------5-------|-----0-----0-----|-|3---3-----------|
 D|---2-------------|-----6-------6---|---2-------------|-|3-3---3---3---3-|
 A|-3---------------|---6-------------|-3---------------|-|5---------------|
 E|-----------------|-4---------------|-----------------|------------------|

[C] [Ab] [C] [Bb/D] 
 
 e|-----------------|-----------------|-----------------|-3-------3-4-4--3|
 B|-9---8---8---6---|-6---4-----------|---------6-------|-----3-----------|
 G|-------8---------|-------------7---|-----5-------5---|---0---0---------|
 D|---8-----------3-|---5---5---5---5-|---3---3---3---3-|---------5-6-6--5|
 A|-6-------6---5---|-3---------------|-----------------|-----------------|
 E|-----------------|---------6-------|-4---------------|-6---------------|

[Ebsus4] [Eb] [Bb/D] [Csus4] [Cm] [Gm/Bb] [Fm/Ab] [Eb/Bb] 
 
 e|-------------6---|
 B|-6-------------6-|
 G|-----8---7-------|
 D|---8---8---8-----|
 A|-----------------|
 E|-6---------------|

[Bb]  
========
Idea #1c
========
 
 e|-----0-------0---|-----------------|---------1-----1-|-------0-1-------|
 B|-------1-------1-|-----1-------1---|-------1-----1---|-----3-------3---|
 G|---0-------0-----|-------2-------0-|-----2-----2-----|---2-------2---2-|
 D|-----------------|---2-------2-----|---------2-------|-0---------------|
 A|-3-------2-------|-0---------------|---3-------------|---------3-------|
 E|-----------------|---------3-------|-1---------------|-----------------|

[C] [C/B] [Am] [C/G] [F] [F/E] [Dmadd9] [Dm/C] 
 
 e|-----------------|---------------5-|-3---------------|-3---------------|
 B|-------0-0---1---|-----3---3---3---|-5---5---5-6-6-5-|-----3---0---5--3|
 G|-----0-----0---0-|---2---5---5-----|---5---5---------|---0---0---0-----|
 D|---5-----2-------|-3-------4-------|-----------------|----------------3|
 A|-5---------------|-----------------|-----------------|-----------------|
 E|-----------------|-----------------|-3---------------|-3---------------|

[G/D] [Em] [C/E] [F6] [D7/F#] [C/G] [G] 
========
Idea #2b
========
Guitar #1
 
 e|-----------------|-----------------|-----------------|--------------------|
 B|-----------------|-----------------|-------------8/--|-11-------------8--9|
 G|-----------------|-------8-7-5-7--8|-7---5-----------|-------------10-----|
 D|-----------------|-----------------|-------------5/--|-8------------------|
 A|-----------------|-----------------|-----------------|--------------------|
 E|-----------------|-----------------|-----------------|--------------------|

Guitar #2
 
 e|---------0-------|-----------------|---------0-----0-|--------------------|
 B|-------1-----1---|-----------------|-------1-----1---|-^6--------3----6---|
 G|-----0-----0---0-|---------5-------|-----0-----0-----|-|3----3------------|
 D|---2-------------|-----6-------6---|---2-------------|-|3--3---3---3----3-|
 A|-3---------------|---6-------------|-3---------------|-|5-----------------|
 E|-----------------|-4---------------|-----------------|--------------------|

[C] [Ab] [C] [Bb/D] 
[G#1]  
 
 e|------------------|-----------------|-----------------|-----------------|
 B|-9---8---8--------|-----------------|-6/--9---------6-|-8-------8-9-9--8|
 G|-------------10---|-8---------5-7-8-|-----------------|-----------------|
 D|------------------|-----------------|-----------------|-----------------|
 A|------------------|-----------------|-----------------|-----------------|
 E|------------------|-----------------|-----------------|-----------------|

[G#2]  
 
 e|------------------|-----------------|-----------------|-----------------|
 B|------------------|-6---4-----------|---------6-------|-----------------|
 G|-----8------------|-------------7---|-----5-------5---|-----7-------7---|
 D|---8---8---8----8-|---5---5---5---5-|---3---3---3---3-|---5---5---5---5-|
 A|-6-------6---5----|-3---------------|-----------------|-----------------|
 E|------------------|---------6-------|-4---------------|-6-------6-------|

[Ebsus4] [Eb] [Bb/D] [Csus4] [Cm] [Gm/Bb] [Fm/Ab] [Eb/Bb] 
[G#1]  
 
 e|-----------------|-----------------|
 B|-6---------------|-----------------|
 G|-----------------|-----------------|
 D|-----------------|-----------------|
 A|-----------------|-----------------|
 E|-----------------|-----------------|

[G#2]  
 
 e|-----------------|---------6-------|
 B|---------6-------|-----------6-----|
 G|-----8-------8---|-----7-------7---|
 D|---8---8---8---8-|---8---8-------8-|
 A|-----------------|-----------------|
 E|-6---------------|-6---------------|

[Bbsus4] [Bb]  
========
Idea #1d
========
 
 e|-----------------|-----------------|-----------------|-----------------|
 B|---------------3-|-----4-------4---|-----------------|-----------------|
 G|-----8-------3---|-----------------|-----5-------5---|-----5-------5---|
 D|---8---8---5-----|---5---5---5---4-|-------6---6---6-|---6---6---6---6-|
 A|-6-------5-------|-3---------------|---6-------------|-8-------6-------|
 E|-----------------|---------6-------|-4-------3-------|-----------------|

[Eb] [Gm/D] [Cm] [Eb/Bb] [Ab] [Ab/G] [Fm7] [Ab/Eb] 
 
 e|-----------------|-----1-----------|---------6-------|-----------------|
 B|-----3-------4---|---1---1---------|-8---8-----9-8---|---------6-8-8--6|
 G|---3---3---3---3-|-1---------------|-8-----8-------8-|-----7-----------|
 D|-3---------------|-----------------|-8---------------|---8---8---------|
 A|-----------------|---------0-------|-----------------|-----------------|
 E|---------3-------|-----------------|-6---------------|-6---------------|

[Bb/F] [Eb/G] [Ab] [F7/A] [Eb/Bb] [Bb] 
========
Idea #1e (combining lead and rhythm here because rhythm is buried in the mix)
========
 
 e|-----------------|-----------------|-----------------|-----------------|
 B|-4---4-------4---|-----4-------4---|-----------------|---------6-------|
 G|-3---------------|-----------------|-5---5-------7-8-|-8---------------|
 D|-5-5---5---5---5-|---5---5---5---5-|---6---6-5-6-----|---6-6-----6---6-|
 A|---------5-------|-3---------------|-----------------|-8-----8-6---8---|
 E|-----------------|---------6-------|-4---------------|-----------------|

[Eb] [Eb/D] [Cm] [Eb/Bb] [Ab] [Ab/G] [Fm7] [Fm7/Eb] 
 
 e|-----------------|-----------------|---------6-------|---------6-------|
 B|-----------------|-4-6-6-4-6-------|^8---8-------8---|-----8-------8---|
 G|-7---7---7-8-8-7-|---5-------------||8-----8---8---8-|---8---8---8---8-|
 D|---8---8-5-8-----|-6-------7-------||8-8-------------|-8---------------|
 A|-8---------------|-----------------|-----------------|-----------------|
 E|-----------------|-----------------|-----------------|-----------------|

[Bb/F] [Gm] [Ab] [F7/A] [Eb/Bb] 
 
 e|---------6-------|-6---------------|
 B|-----6-------6---|-----------------|
 G|-----------------|-----------------|
 D|---8---8---8---8-|-----------------|
 A|-----------------|-----------------|
 E|-6---------------|-----------------|

[Bb]  
=====
Outro
=====
 
 e|-----------------|-----------------|-----------------|-----------------|
 B|-4---4-------4---|-----4-------4---|---------4-------|^8---------------|
 G|-----------------|-----------------|-------5---5---5-||8---------------|
 D|---5---5---5---5-|---5---5---5---5-|-----6-------6---||8---------------|
 A|-6-------5-------|-3---------------|---6-------------||6---------------|
 E|-----------------|---------6-------|-4---------------|-----------------|

[Eb] [Eb/D] [Cm] [Eb/Bb] [Ab] [Eb] 

Important: The song above is NOT stored on the Chordie server. The original song is hosted at www.azchords.com. Chordie works as a search engine and provides on-the-fly formatting. Chordie does not index songs against artists'/composers' will. To remove this song please click here.

Text color:
Chord color:
Chord grids: 
Font size:    
Page size: 

Ab Ab/G Am Bb Bb/D Bb/F Bbsus4 C C/B C/E C/G Cm Csus4 D7/F# Dm/C Dmadd9 Eb Eb/D Eb/G Em F F/E F6 Fm/Ab Fm7 Fm7/Eb G G#2 G/D G7 Gm Gm/Bb Gm/D
Rate #1 of 2 versions

Login - add to songbook

SHARE PAGE  




You need to log in to post comments