Guitar Tabs, Chords and Lyrics
Update 25:10. 13:00. Site is back up running again. Songbooks are recovered. Woring on getting search back up..


Diz Pra Mim  Malta

 
 E|-------------------------9b10r9----------10/12~~\---|
 B|-5h7/10\7----5h7/10\7-----------10~-----------------|
 G|---------------------------------------9------------|
 D|----------------------------------------------------|
 A|----------------------------------------------------|
 E|----------------------------------------------------|
 E|----------------------------------------------------|
 B|-5h7/10\7----5-7-7/10-10\-5-------------------------|
 G|----------------------------------------------------|
 D|----------------------------------------------------|
 A|----------------------------------------------------|
 E|----------------------------------------------------|

Primeira Parte:
[Am] [G] [C] [F/C]  
 
 E|--------------------------0--1------1-----|
 B|-------1--1-----0---1----------1----------|
 G|-----2--------0-------0-0--------2--------|
 D|---2--------0-----------------------------|
 A|-0------------------3--------3------------|
 E|----------3-------------------------------|

[C] [Am] [G]  
 
 E|-0--------------0----------3---3/5\3------|
 B|-------1--1---1----3---3---3---3/5\3------|
 G|-----0------2--------0---0---0------------|
 D|---2--------------------------------------|
 A|-3--------0-------------------------------|
 E|-------------------3----------------------|

[Am] [G] [C] [F]  
 
 E|-0--------------0-------0--1--------------|
 B|-1-----1--3-------1----------1---1--------|
 G|-----2--------0-------0--------2----------|
 D|---2--------0-------2---------------------|
 A|-0----------------3-----------------------|
 E|----------3----------------1--------------|

[C] [Am] [G]  
 
 E|-0--------0-------0----------3/5\3--------|
 B|-------1--1---1h3---3-----3--3/5\3--3-----|
 G|-----0------------------0-------------0---|
 D|---2--------2---------0-------------------|
 A|-3--------0-------------------------------|
 E|--------------------3---------------------|

Você es[Am]tá na[G] sombra do o[C]lhar
Pens[F/C]ei em te guard[C]ar, mas f[Am]oi melhor ass[G]im
[Am] Na s[G]ombra do olh[C]ar, tent[F]ei te encontr[C]ar
Mas n[Am]ada além de [G]mim
Pré-refrão:
[Dm] [F] [C] [G]  
 
 E|-------1-----------0----------------3-----|
 B|-----3----------1-----------------3-------|
 G|---2----------2------------0------0-------|
 D|-0----------3----------0h2------0---------|
 A|-------------------3-3--------------------|
 E|----------1-------------------3-----------|

[Dm] [F] [G]  
 
 E|-1p0-----------------------3--------------|
 B|-----3----------1--------3-3--------------|
 G|-------2------2--------0------------------|
 D|-0----------3--------0--------------------|
 A|------------------------------------------|
 E|----------1--------3----------------------|

Pré-refrão:
D[Dm]e onde est[F]ou, [C] posso v[G]er
O cam[Dm]inho que me l[F]eva a voc[G]ê
Primeiro Refrão:
 
 E|----------------------------------------------------|
 B|-5h7/10\7----5h7/10\7/----14-15~-14-14~-------------|
 G|----------------------------------------------------|
 D|----------------------------------------------------|
 A|----------------------------------------------------|
 E|----------------------------------------------------|
 E|----------------------------------------------------|
 B|-5h7/10\7----5h7/10\7----5~-------------------------|
 G|----------------------------------------------------|
 D|----------------------------------------------------|
 A|----------------------------------------------------|
 E|----------------------------------------------------|

Diz pra m[F]im o que eu já [C]sei
Tenho t[G]anta coisa n[Am]ova pra cont[F]ar [C] [Am] De m[G]im
Diz pra m[F]im sobre voc[C]ê[G]
Segunda Parte:
Você es[Am]tá na sombra[G] do o[C]lhar
Pens[F]ei em te guard[C]ar, pra n[Am]unca mais ter f[G]im
[Am] Na s[G]ombra do olh[C]ar, tent[F]ei te encontr[C]ar
Mas n[Am]ada além de [G]mim
Pré-refrão:
D[Dm]e onde est[F]ou, [C] posso v[G]er
O cam[Dm]inho que me l[F]eva a voc[G]ê
Segundo Refrão:
 
 E|----------------------------------------------------|
 B|-5h7/10\7----5h7/10\7/----14-15~-14-14~-------------|
 G|----------------------------------------------------|
 D|----------------------------------------------------|
 A|----------------------------------------------------|
 E|----------------------------------------------------|
 E|----------------------------------------------------|
 B|-5h7/10\7----5h7/10\7/----14-15~-14-14~-------------|
 G|----------------------------------------------------|
 D|----------------------------------------------------|
 A|----------------------------------------------------|
 E|----------------------------------------------------|

Diz pra m[F]im o que eu já [C]sei
Tenho t[G]anta coisa n[Am]ova pra cont[F]ar [C] [Am] De m[G]im
Diz pra m[F]im sobre voc[C]ê
? a [G]hora certa p[Am]ra recome[F]ça[C]r [Am]
Do f[G]im
Interlúdio:
Parte 1 de 2
 
 E|----------------------------------------------------|
 B|----------------------------------------------------|
 G|-7-7-7-7----7-7-7-7----7/9--------------------------|
 D|----------------------------7~--7-7-7/9-7~----------|
 A|-5-5-5-5----5-5-5-5----5/7--------------------------|
 E|----------------------------5~--5-5-5/7-5~----------|

Parte 2 de 2
 
 E|----------------------------------------------------|
 B|----------------------------------------------------|
 G|-7-7-7-7----7-7-7-7----7/9--------------------------|
 D|----------------------------7~----------------------|
 A|-5-5-5-5----5-5-5-5----5/7--------------------------|
 E|----------------------------5~----------------------|

Base do Solo: F C G Am (2x)
[F] [C] [G] [Am] [G] [F] [C] [Am] [G] 
Solo:
Parte 1 de 2
 
 E|----------------------------------------------------|
 B|-------10~----------10------------------------------|
 G|-7p6-7------6-7p6-7-----6-----------7---6-----------|
 D|--------------------------7~----7h9-----------------|
 A|----------------------------------------------------|
 E|----------------------------------------------------|

Parte 2 de 2
 
 E|----------------------------------------------------|
 B|-------10~----------10------------------------------|
 G|-7p6-7------6-7p6-7-----6--7/11---14\9--6-----------|
 D|----------------------------------------------------|
 A|----------------------------------------------------|
 E|----------------------------------------------------|

Terceiro Refrão e Final:
Parte 1 de 4
 
 E|----------------------------------------------------|
 B|-5h7/10\7----5h7/10\7/----14-15~-14-14~-------------|
 G|----------------------------------------------------|
 D|----------------------------------------------------|
 A|----------------------------------------------------|
 E|----------------------------------------------------|

Parte 2 de 4
 
 E|----------------------------------------------------|
 B|----------------------------------------------------|
 G|-6/7-7-7-7--7-7-7/9--9-9-9--9-9-9/11--11-11-11~-----|
 D|----------------------------------------------------|
 A|----------------------------------------------------|
 E|----------------------------------------------------|

Parte 3 de 4
 
 E|----------------------------------------------------|
 B|----------------------------------------------------|
 G|-9b11--9b11--9b11r9p7-------------------------------|
 D|----------------------9~----------------------------|
 A|----------------------------------------------------|
 E|----------------------------------------------------|

Parte 4 de 4
 
 E|----------------------------------------------------|
 B|----------------------------------------------------|
 G|-6/7-7-7-7--7-7-7/9--9-9-9/11--7\6------------------|
 D|----------------------------------------------------|
 A|----------------------------------------------------|
 E|----------------------------------------------------|

Diz pra m[F]im o que eu já [C]sei
Tenho t[G]anta coisa n[Am]ova pra cont[F]ar [C] [G]
Diz pra m[F]im o que eu já [C]sei
Tenho t[G]anta coisa n[Am]ova pra cont[F]ar [C] [Am]
De m[G]im[F] [C] [G] [Am]
Recome[F]ar[C] do [G]fim

Important: The song above is NOT stored on the Chordie server. The original song is hosted at www.azchords.com. Chordie works as a search engine and provides on-the-fly formatting. Chordie does not index songs against artists'/composers' will. To remove this song please click here.

Text color:
Chord color:
Chord grids: 
Font size:    
Page size: 

Am C Dm F F/C G
Rate #1 of 1 versions

Jango Player

Login - add to songbook

SHARE PAGE  



You need to log in to post comments