Guitar Tabs, Chords and Lyrics
Update 25:10. 13:00. Site is back up running again. Songbooks are recovered. Woring on getting search back up..


Nova História  Malta

Afinação: (Eb Bb Gb Db Ab Db)
Parte 1:
[E5]Espero aq[G5]ui
[D5]Pelo fim tão ensa[A5]iado
ocultar tablatura
[E5]  
 
 Eb|-------------||
 Bb|-------------||
 Gb|-------------||
 Db|---------2---||
 Ab|---------2---||
 Db|--2p5----2---||

[E5]Não vou me[G5]ntir
Sempre [D5]vi mais o meu [A5]lado
E na h[C5]ora de d[D5]izer o n[E5]ão
[G5]Foi a h[D5]ora que [A5]eu disse [C5]sim
Mesmo c[D5]ego, sem dire[E5]ão
[G5]Posso ou[A5]vir, mas finjo que não
ocultar tablatura
Riff principal:
[E5] [C5] [G5] [D5]  
 
 Eb|-----------------------------|-------|-------------------------|---------------||
 Bb|-----------------------------|-------|-------------------------|---------------||
 Gb|-----------------------------|-------|-------------------------|---------------||
 Db|-----------------------------|-------|-------------------------|---------------||
 Ab|-----------------------------|-------|-------------------------|---3-------5---||
 Db|--0-2-5--0-2-5--0-2-5--0-2-5-|--0-0--|--0-0-0-2-5--0-2-5--0-2--|-------5-------||

P.M. . . . .
[E5] [C5] [G5] [F#5] [E5]  
 
 Eb|-----------------------------|-------|-------------------------|-----------------||
 Bb|-----------------------------|-------|-------------------------|-----------------||
 Gb|-----------------------------|-------|-------------------------|-----------------||
 Db|-----------------------------|-------|-------------------------|-------5--4--2---||
 Ab|-----------------------------|-------|-------------------------|---3---5--4--2---||
 Db|--0-2-5--0-2-5--0-2-5--0-2-5-|--0-0--|--0-0-0-2-5--0-2-5--0-2--|-------5--4--2---||

P.M. . . . .
(P.M. = palm mute)
Parte 2:
[E5]Olhos fe[G5]chados, entrego os [D5]dados
Já nã[A5]o vou mais jogar com [E5]você
Serei lemb[G5]rado ou exil[D5]ado
De um lu[A5]gar que eu nem mesmo pis[C5]ei
ocultar tablatura
[C5] [D5]  
 
 Eb|--------------------|----------------------|---------------------||
 Bb|---8-7-----8-7------|--10-8-7----10-8-7----|--10/12~----1510~---||
 Gb|-------7-------7----|-------------------7--|---------------------||
 Db|---------7-------7--|---------7------------|---------------------||
 Ab|--------------------|----------------------|---------------------||
 Db|--------------------|----------------------|---------------------||

Parte 3:
[C5]Vão fi[D5]ngir gostar de [E5]mim
Enq[G5]uanto eu f[D5]ujo pra [A5]outro lug[C5]ar
ocultar tablatura
[C5]  
 
 Eb|---------------------||
 Bb|---8-7-----8-7-------||
 Gb|-------7-------7-----||
 Db|---------7-------7---||
 Ab|---------------------||
 Db|---------------------||

Por que as c[D5]oisas [D#5]são assim?
[D5] [D#5]  
 
 Eb|------------|---------||
 Bb|--10-8-7----|---------||
 Gb|------------|---------||
 Db|---------7--|----7----||
 Ab|------------|----6----||
 Db|------------|---------||

[C5]Quero ser u[G5]ma luz no [D5]céu
Pra que vo[E5]cê me escolha
[C5]Vou mudar o m[G5]undo
Escre[D5]ver a nossa n[E5]ova história
[C5]E quando esse in[G5]ferno pa[D5]ssar, [E5]vou esp[C5]erar[D5]
E não[D#5] haverá fim
ocultar tablatura
Guitarra 2:
[C5] [G5] [D5] [E5]  
 
 Eb|---8---8-------------------------------------||
 Bb|-----8---8---8---8----10---10----8---8-------||
 Gb|---------------7---7-----7----7----9---9-----||
 Db|---------------------------------------------||
 Ab|---------------------------------------------||
 Db|---------------------------------------------||

(Repetir 3x durante o refrão)
Riff principal:
[E5] [C5] [G5] [D5]  
 
 Eb|-----------------------------|-------|-------------------------|---------------||
 Bb|-----------------------------|-------|-------------------------|---------------||
 Gb|-----------------------------|-------|-------------------------|---------------||
 Db|-----------------------------|-------|-------------------------|---5---5---7---||
 Ab|-----------------------------|-------|-------------------------|---3---5---5---||
 Db|--0-2-5--0-2-5--0-2-5--0-2-5-|--0-0--|--0-0-0-2-5--0-2-5--0-2--|-------5-------||

P.M. . . . .
[E5] [C5] [G5] [F#5] [E5]  
 
 Eb|-----------------------------|-------|-------------------------|-----------------||
 Bb|-----------------------------|-------|-------------------------|-----------------||
 Gb|-----------------------------|-------|-------------------------|-----------------||
 Db|-----------------------------|-------|-------------------------|---5---5--4--2---||
 Ab|-----------------------------|-------|-------------------------|---3---5--4--2---||
 Db|--0-2-5--0-2-5--0-2-5--0-2-5-|--0-0--|--0-0-0-2-5--0-2-5--0-2--|-------5--4--2---||

P.M. . . . .
(P.M. = palm mute)
Parte 4:
[E5]Viver, [G5]morrer, [A5]é tudo i[C5]gual no fim
[E5]O que [G5]muda é a hi[A5]stória
ocultar tablatura
[C5] Que- -[D5]irão contar
 
 Eb|--------------------|-------------||
 Bb|---8-7-----8-7------|--10-8-7-----||
 Gb|-------7-------7----|-------------||
 Db|---------7-------7--|---------7---||
 Ab|--------------------|-------------||
 Db|--------------------|-------------||

[C5]Quero ser u[G5]ma luz no [D5]céu
Pra que vo[E5]cê me escolha
[C5]Vou mudar o m[G5]undo
Escre[D5]ver a nossa n[E5]ova história
[C5]E quando esse in[G5]ferno pa[D5]ssar, [E5]vou esp[C5]erar[D5]
E não[D#5] haverá fim
[C5]Quero ser u[G5]ma luz no [D5]céu
Pra que vo[E5]cê me escolha
[C5]Vou mudar o m[G5]undo
Escre[D5]ver a nossa n[E5]ova história
[C5]E quando esse in[G5]ferno pa[D5]ssar, [E5]vou esp[C5]erar[D5]
E não[D#5] haverá fim
ocultar tablatura
Guitarra 2:
[C5] [G5] [D5] [E5]  
 
 Eb|---8---8-------------------------------------||
 Bb|-----8---8---8---8----10---10----8---8-------||
 Gb|---------------7---7-----7----7----9---9-----||
 Db|---------------------------------------------||
 Ab|---------------------------------------------||
 Db|---------------------------------------------||

(Repetir 3x durante os dois refrões)
Riff final:
 
 Eb|---------------|-------|----------------------||
 Bb|---------------|-------|----------------------||
 Gb|---------------|--5----|----------------------||
 Db|--2-0-2---2-0--|----5--|--2-0-2---2---6-5-3---||
 Ab|--2-0-2---2-0--|-------|--2-0-2---2---6-5-3---||
 Db|--2-0-2---2-0--|-------|--2-0-2---2---6-5-3---||

H.N. . .
 
 Eb|---------------|-------|----------------------------||
 Bb|---------------|-------|----------------------------||
 Gb|---------------|--5----|----------------------------||
 Db|--2-0-2---2-0--|----5--|--2-0-2---x-x-----1--1--1---||
 Ab|--2-0-2---2-0--|-------|--2-0-2---x-x-----0--0--0---||
 Db|--2-0-2---2-0--|-------|--2-0-2---x-x-----1--1--1---||


Important: The song above is NOT stored on the Chordie server. The original song is hosted at www.azchords.com. Chordie works as a search engine and provides on-the-fly formatting. Chordie does not index songs against artists'/composers' will. To remove this song please click here.

Text color:
Chord color:
Chord grids: 
Font size:    
Page size: 

A5 C5 D#5 D5 E5 F#5 G5
Rate #1 of 1 versions

Jango Player

Login - add to songbook

SHARE PAGE  



You need to log in to post comments