Guitar Tabs, Chords and Lyrics
Login is temporarily disabled for some users. Do not panic. Will be back in an hour or two. DO NOT REREGISTER!!


Where Have You Been?  Manchester Orchestra

" Where Have You Been (acoustic) - Manchester Orchestra
Tuning:Standard
Verses: 2x They call holidays...
[F#m] [E] 
 
 e|-----------------------------------------------------------------------------|
 B|10-------10-------10-------10-----/---9------9------9------9----/---7--------|
 G|----11-------11-------11-------11-/------9------9------9------9-/------7-----|
 D|-----------------------------------------------------------------------------|
 A|9------9--------9--------9-------9/---7----7------7------7-----7/---5--------|
 E|-----------------------------------------------------------------------------|

D ...I read with him too
 
 e|---------------------------------------------------------------------------|
 B|--7-------7-------7-------7-------7-------7-------7------------------------|
 G|-----7-------7-------7-------7-------7-------7-------7-----5x--------------|
 D|---------------------------------------------------------------------------|
 A|5------5-------5-------5-------5-------5-------5------5--------------------|
 E|---------------------------------------------------------------------------|

Chorus: 2x Cuz when you look at me...
[Bm] [A]  
 
 e|---------------------------------------------------------------------------|
 B|3--------3--------3--------3-------2--------2--------2--------2------------|
 G|---4--------4--------4--------4-------2--------2--------2--------2---------|
 D|---------------------------------------------------------------------------|
 A|2-----2--------2--------2-------2--0-----0--------0--------0-------0-------|
 E|---------------------------------------------------------------------------|

[F#m] [E]  
 
 e|-----------------------------------------------------------------------------|
 B|-----------------------------------------------------------------------------|
 G|2-------2--------2--------2-----1--------1--------1h2--------2p1-------------|
 D|--4--------4--------4--------4-----2--------2----------2----------2----------|
 A|-----------------------------------------------------------------------------|
 E|2----2--------2--------2------2-0-----0--------0----------0----------0-------|

2nd time use picking pattern in Bm, A, E(without h and p), D(000232)
play verse riff 1x
Bridge 4x: I gotta take...(Same picking as verse, just reversed order: D, E, F#m)
Outro: Joy.... (Verse order: F#m, E, D)
Kind of a rag-tag tab, my appologies. Just wanted to get it out there to see if I was on
right track.
solo that you can pick it up from. I think this is close. If not, my bad. Giddy up.
| / slide up
| \ slide down
| h hammer-on
| p pull-off
| ~ vibrato
| + harmonic
| x Mute note
"

Important: The song above is NOT stored on the Chordie server. The original song is hosted at www.azchords.com. Chordie works as a search engine and provides on-the-fly formatting. Chordie does not index songs against artists'/composers' will. To remove this song please click here.

Text color:
Chord color:
Chord grids: 
Font size:    
Page size: 

A Bm E F#m
Rate #1 of 3 versions

Login - add to songbook

SHARE PAGE  




You need to log in to post comments