Guitar Tabs, Chords and Lyrics
Server problems seems to be fixed. Chordie has been experiencing problems with songs disappearing. These issues now seems to be fixed, but still verifying the fix. If you find anything strange, please email admin@chordie.com.


Sheepdog  Mando Diao

 
 ------------------------

Intro:
6x
 
 |-------------------------------------------------|
 |-------------------------------------------------|
 |--4--4---2---4--2--------------------------------|
 |-------------------4--3----2-2--0--2--0-----0----|
 |-----------------------------------------2-------|
 |-------------------------------------------------|

[B]I aim at the first one who'll dare to stand still
Oh Lord, you're [D]tension is making me ill
You've got no fr[E]iends in your home, you'll got no family stone
You can't go: Yea[F#]h Yeah Yeah
Yeah Yeah Yeah
[B]Everyone, in every town, on every boat, on every trip, the multi-talanted strip,
Will gather '[D]round you with coke and pain
The t[E]rees, ain't no doubt about
The seeds, I had no thought about
No, [F#]Yeah Yeah Yeah
Don't know why I [G]can't locate this [A]feeling, that I would rat[D]her be with yo[Bm]u
G A B [Tab1]
It makes no sense, your crying out loud, that I may love you
This stress is wa[G]sting my emo[A]tions that I would r[D]ather be with [Bm]you
Don't let them c[G]loser to this se[A]cret...[pause] that I [B]may love you
2x Intro
[B]Take 'em outa west, take 'em outa height, take 'em on a sweet ride
Those little an[D]gels are numbered nine
The colored T[E]V once shined on desolation 15
They've got it! Y[F#]eah Yeah Yeah, Yeah Yeah Yeah
[B]Bust 'em in the light, bust 'em in the light, BUST 'EM IN THE DAYLIGHT
They ain't wo[D]rthy being named as thieves
One of those s[E]horties said hi up to the abbot who died
The rebound, Y[F#]eah Yeah Yeah
Don't know why I [G]can't locate this [A]feeling, that I would rat[D]her be with yo[Bm]u
G A B [Tab1]
It makes no sense, your crying out loud, that I may love you
This stress is wa[G]sting my emo[A]tions that I would r[D]ather be with [Bm]you
Don't let them c[G]loser to this se[A]cret...[pause] that I [B]may love you
2x Intro
4x Intro & the Solo at the same time
[Tab2] 
Now hear the b[Bm]luebird whistle hy[A]mns like "I would ra[D]ther heal your wo[Bm]unds"
now hear the [G]dark gun punch[A]ing out,[long pause] [B]that I may love you
[Intro few times witb "Yeab Yeab Yeab", tben fade out] 
Tab1:
 
 |-------------------------------------------------|
 |-------------------------------------------------|
 |--4--4---2---4--2--------------------------------|
 |-------------------4--3--------------------------|
 |--------------------------2--2--0--2--0----------|
 |------------------------------------------2--1---|

Solo:
sry, heaven't got the solo yet, i will add it soon!
Tab2 F#
 
 |--2--2--0--2--0---------------------------------------------------------------|
 |----------------2--1----------------------------------------------------------|
 |------------------------------------------------------------------------------|
 |----------------------4--4--2--4--2--------4--4--2--4--2----------------------|
 |-------------------------------------4--3----------------4--3-----------------|
 |---------------------------------------------------------------2-2-2--5--5--5-|


Important: The song above is NOT stored on the Chordie server. The original song is hosted at www.azchords.com. Chordie works as a search engine and provides on-the-fly formatting. Chordie does not index songs against artists'/composers' will. To remove this song please click here.

Text color:
Chord color:
Chord grids: 
Font size:    
Page size: 

A B Bm D E F# G
Rate #1 of 8 versions

Jango Player

Login - add to songbook

SHARE PAGE  




You need to log in to post comments