Guitar Tabs, Chords and Lyrics
Server problems seems to be fixed. Chordie has been experiencing problems with songs disappearing. These issues now seems to be fixed, but still verifying the fix. If you find anything strange, please email admin@chordie.com.


Cry  Mandy Moore

MANDY MOORE 'CRY'
*****************
Enjoy.
INTRO/VERSE
 
 -----------

(Arpeggiated chords)
C major G major 6th D minor 7th
 
 1|--------8-----------7-----------5----------5---
 2|------8-----------8-----------6----------6-----
 3|----9-----------9-----------5----------5-------
 4|-10----------10-----------7----------7---------
 5|-----------------------------------------------
 6|-----------------------------------------------

[C] Y[G]ou were all by yourself
Star[Dmin7]ring up at a dark grey sky
F (guitar melody, see below)
I was changed
**Guitar Melody**
 
 1|-13--12------------------------
 2|-13--13--13--13------13--------
 3|---------14--12------12--12----
 4|-----------------14------10----
 5|-------------------------------
 6|-------------------------------

CHORUS
[-----]  
[C] In p[G]laces no one will find
All your[Dmin7] troubles so deep inside
[F](Deep inside)
So on and so forth repeating those chords.....
BRIDGE
 
 ------

(The moment I saw you) [Am]Cry
I wanted to [G]hold you
I wanted to [Dmin]make it go away[F]
C Cmaj7?
I wanted to know you
I wanted to [Am]make your everything, all[F] right....

Important: The song above is NOT stored on the Chordie server. The original song is hosted at www.azchords.com. Chordie works as a search engine and provides on-the-fly formatting. Chordie does not index songs against artists'/composers' will. To remove this song please click here.

Text color:
Chord color:
Chord grids: 
Font size:    
Page size: 

Am C Dmin Dmin7 F G
Rate #1 of 12 versions

Jango Player

Login - add to songbook

SHARE PAGE  



You need to log in to post comments