Guitar Tabs, Chords and Lyrics
Server problems seems to be fixed. Chordie has been experiencing problems with songs disappearing. These issues now seems to be fixed, but still verifying the fix. If you find anything strange, please email admin@chordie.com.


This Joke Sport Severed  Manic Street Preachers

 
 -------------------------------------------------------------------------------
 -------------------------------------------------------------------------------

| / slide up
| \ slide down
| h hammer-on
| p pull-off
| ~ vibrato
| + harmonic
| x Mute note
Standard Tuning
Capo at 3rd Fret
Chords Used (Relative to Capo)
 
 ------------------------------

EADGBe
Em 022000
C x32010
G 320033
D xx0232
B7 x21202
Emadd9 022002
Am x02210
Em/Db x45450
Intro
[-----]  
 
 e|-----------------------------------------------------------2-0-------------|
 B|-------------------------------------------------------3--------3----------|
 G|-------0-------------------0---------------------------2----------2--------|
 D|-----2-2/4\2-0---------0h2-----2-------------0---------0------------0------|
 A|---2-----------2-0-3-------------3-------0h2-----2-------------------------|
 E|-0---------------------------------0-3-------------3-0---------------------|

Verse
[-----]  
[Em]Loose and guilty and whipped[C]
Sterilit[G]y persecutes and I[D] have plenty
[Em]Bruised and nailed and quit[C]
Mercif[G]ul and mourned and meek[D]
[B7] Jealousy sows rejection with a kiss[Emadd9] [C]
[B7] In silken palms that tear bone from skin[Emadd9] [C]
Chorus
 
 ------

[Am] This joke sport severed
[B7] I endeavoured
[Emadd9] To find a place where
[Em/Db] I became untethered
[Am] This joke sport severed
[B7] I endeavoured
[Emadd9] To find a place where
[Em/Db] I became untethered
===============================================================================

Important: The song above is NOT stored on the Chordie server. The original song is hosted at www.azchords.com. Chordie works as a search engine and provides on-the-fly formatting. Chordie does not index songs against artists'/composers' will. To remove this song please click here.

Text color:
Chord color:
Chord grids: 
Font size:    
Page size: 

Am B7 C D Em Em/Db Emadd9 G
Rate #1 of 3 versions

Login - add to songbook

SHARE PAGE  




You need to log in to post comments