Guitar Tabs, Chords and Lyrics
Login is temporarily disabled for some users. Do not panic. Will be back in an hour or two. DO NOT REREGISTER!!


Gates of Valhalla  Manowar

trancribed by MOYW
Standard Tuning
INTRO 3x(First time with no Vocals)
Played by Guitar
[Dm] [A7] [A] [C]  
 
 |----------------1---3-----0---------5-------5-----|---------------0----------|
 |-----------3----3---------2---5-------5---5---5---|---------------1----------|
 |----------------2---------0------2------2-------2-|--------1------0----------|
 |-----0----------0---------2-----------------------|-----0----0----2----------|
 |--------0-----------------0-----------------------|---3----------------------|
 |--------------------------------------------------|--------------------------|

[C] [G] [Bm]  
 
 |--1-/-3--------|-------3-------3-------------|-------------------------------|
 |--3-/-5--------|---------3---3---3-----------|--------------2---5-/-7--------|
 |--0-/----------|-----------------------------|-------4------4---4-/----------|
 |---------------|---------------------------5-|---2----------2----------------|
 |---------------|-----------------------------|-------------------------------| 

F# Am Em(Only 2 first times)
 
 |----2-------2-------2-----|--------------------------|---0-----0-----0-------|
 |------2---2---2---2---2---|----------------1---3-/-5-|---0-------0-----0-----|
 |--------------------------|---------2------2---2-/---|---1-------------------|
 |--------------------------|---0------------0---------|---2-----------------2-|
 |--------------------------|--------------------------|---0-------------------|

3rd time
 
 |---0---------------------|
 |---0---------------------|
 |---1---------------------|
 |---2---------------------|
 |---2---------------------|
 |---0---------------------|

Riff 1 3x(First time no vocals)
 
 |-------------------------|-------------------------------------------------------|
 |-------------------------|-------------------------------------------------------|
 |-------------------------|-------------------------------------------------------|
 |--7-7-7-7-7-7-7-7-7------|-------------------------------------------------------|
 |--5-5-5-5-5-5-5-5-5--7---|-------7-------7-------7------7-------7-------7--------|
 |---------------------5---|--0-0-5---0-0-5---0-0-5---0-0-5---0-0-5---0-0-5--------|
 |-------------------------|-------------------------------------------------------|
 |-------------------------|-------------------------------------------------------|
 |-------------------------|-------------------------------------------------------|
 |--5-5-5-5-5-5-5-5-5------|--7-7------7-7------7-7------7-7------7-7------7-7-----|
 |--3-3-3-3-3-3-3-3-3--5---|--5-5--5---5-5--5---5-5--5---5-5--5---5-5--5---5-5--5--|
 |---------------------3---|-------3--------3--------3--------3--------3--------3--|

[-]  
 
 |-------------------------|-------------------------------------------------------|
 |-------------------------|-------------------------------------------------------|
 |-------------------------|-------------------------------------------------------|
 |--4-4-4-4-4-4-4-4-4------|--6-6------6-6------6-6------6-6------6-6------6-6-----|
 |--2-2-2-2-2-2-2-2-2--4---|--4-4--4---4-4--4---4-4--4---4-4--4---4-4--4---4-4--4--|
 |---------------------2---|-------2--------2--------2--------2--------2--------2--|
 |-------------------------|-------------------------------------------------------|
 |-------------------------|-------------------------------------------------------|
 |-------------------------|-------------------------------------------------------|
 |--2-2-2-2-2-2-2-2-2------|--4-4------4-4------4-4------4-4------4-4------4-4-----|
 |--0-0-0-0-0-0-0-0-0--2---|--2-2--2---2-2--2---2-2--2---2-2--2---2-2--2---2-2--2--|
 |---------------------0---|-------0--------0--------0--------0--------0--------0--|

Each one of this chords are of 4 times
[Dm] [A] [C] [G5] [Bm] [F#] [Am] [E5] 
 
 |-------|---------|---------|---------|---------|---------|---------|-------------|
 |--6----|----5----|---------|---------|----2----|---------|----1----|-------------|
 |--7----|----6----|----5----|---------|----4----|----3----|----2----|-------------|
 |--7----|----7----|----5----|----5----|----4----|----4----|----2----|----2--------|
 |--5----|----7----|----3----|----5----|----2----|----4----|----0----|----2--------|
 |-------|----5----|---------|----3----|---------|----2----|---------|----0--------|


Important: The song above is NOT stored on the Chordie server. The original song is hosted at www.azchords.com. Chordie works as a search engine and provides on-the-fly formatting. Chordie does not index songs against artists'/composers' will. To remove this song please click here.

Text color:
Chord color:
Chord grids: 
Font size:    
Page size: 

A A7 Am Bm C Dm E5 F# G G5
Rate #1 of 1 versions

Login - add to songbook

SHARE PAGE  




You need to log in to post comments