Guitar Tabs, Chords and Lyrics
Major upgrade!! After one year development the new version of Chordie is now online! Please give feedback.


The Chad Who Loved Me  Mansun

THE CHAD WHO LOVED ME
(strings intro)
 
 |---------------------------|---------------5--5--5-5-5-|
 |-3----3--3-3-3-3--3--3-3-3-|-3----3--3-3-3-3--3--3-3-3-|
 |-0----0--0-0-0-0--0--0-0-0-|-3----3--3-3-3-3--3--3-3-3-|
 |-2----2--2-2-2-2--2--2-2-2-|-0----0--0-0-0-0--0--0-0-0-| twice
 |-3----3--3-3-3-3--3--3-3-3-|-x-------------------------|
 |---------------------------|-3----3--3-3-3-------------|

[Cadd9] [Gm]  
then the lead guitar starts
C Gm x4
C A# x2
C Gm x2
[A] [G]  
E5(022450) E5/C(032450)
All come crashing down your desperate icon
E5/A(002450) E5(022450)
You've got a gob on my desperate icon
x2
then solo... Which is
E5 G x4
[Asus2] [G]  
Am I am [Em]god or am I Jesus, am I a [A]man or am I am [G]boy?
Do I feel [Em]love or just possession?
Do I feel [G]holy or nothing at [A]all?
You
 
 |--------0--0-0-|--------0--0-0-|--------0--0-0-|--------0--0-0-|
 |--------5--5-5-|--------5--5-5-|--------5--5-5-|--------5--5-5-|
 |--------4--4-4-|--------4--4-4-|--------4--4-4-|--------4--4-4-|
 |--2--2-----2-2-|--2--2-----2-2-|--0--0-----0-0-|--0--0-----0-0-|
 |--2--2---------|--2--2---------|--x------------|---------------| x 5
 |--0--0---------|--0--0---------|--3--3---------|--3--3---------|

can't deny that your sh*t
just tastes as sweet as mine And you can't
deny that your sh*t
just tastes as sweet as mine Sweet Jesus
[-]  
ending: strings and:
 
 |-0----0---0--0--0-0-0-0-0-|-0--0--0---0--0--0-0-----|
 |-0----0---0--0--0-0-0-0-0-|-3--3--3---3--3--3-3-----|
 |-2----2---2--2--2-2-2-2-2-|-0--0--0---0--0--0-0-----|
 |-2----2---2--2--2-2-2-2-2-|-2--2--2---2--2--2-2-----|
 |-0----0---0--0--0-0-0-0-0-|-2--2--2---2--2--2-2-----| x 2
 |--------------------------|-0--0--0---0--0--0-0-----|

take from

Important: The song above is NOT stored on the Chordie server. The original song is hosted at www.azchords.com. Chordie works as a search engine and provides on-the-fly formatting. Chordie does not index songs against artists'/composers' will. To remove this song please click here.

Text color:
Chord color:
Chord grids: 
Font size:    
Page size: 

A Asus2 Cadd9 Em G Gm
Rate #2 of 2 versions

Login - add to songbook

SHARE PAGE  




You need to log in to post comments