Guitar Tabs, Chords and Lyrics
Major upgrade!! After one year development the new version of Chordie is now online! Please give feedback.


Saint Joe on the School Bus  Marcy Playground

Saint Joe On The School Bus
F# A E F E*
 
 e --------- --------- --------- --------- ----0----
 B --------- --------- --------- --------- ----0----
 G --------- --------- --------- --------- ----1----
 D ----4---- ----7---- ----2---- ----3---- ----2----
 A ----4---- ----7---- ----2---- ----3---- ----2----
 E ----2---- ----5---- ----0---- ----1---- ----0----

riff 1:
[E] [F#] [A]  
 
 e ----------------------------------------|
 B ----------------------------------------|
 G ----------------------------------------|
 D ----------------------------------------|
 A ------2----2---2-------0---------4------|
 E --0-0--0-0---0-----2-2---2---5-5---5----|

riff 2:
[B]  
 
 e ------------------|
 B ------------------|
 G ------------------|
 D ------------------|
 A ----6-----6---6---|
 E 7-7---7-7---7-----|

[F#] Saint J[A]oe, he sa[E]id he's never been
[E] [F] [F#] Dressed u[A]p like a w[E]oman
[E] [F] [F#] Saint Jo[A]e, they sa[E]id your dad was gay
[E] [F] [F#] They said your mo[A]m she's a who[E]re
[E] [F] [F#] They said it 'ti[A]l you were ra[E]w, yeah
[E] [F] [F#] They said your mo[A]m's she's a bo[E]re
E F F# A E E*
An' they made her beg them for more
But [E]my..[F#]... Au[A]nt Ma[E]ry.[F#]...A[A]unt M[E]ary
[F#] A[A]unt M[E]ary says they have the d[A]arkne[E]ss th[B]ere in their e[E]yes
...Repeats Again

Important: The song above is NOT stored on the Chordie server. The original song is hosted at www.azchords.com. Chordie works as a search engine and provides on-the-fly formatting. Chordie does not index songs against artists'/composers' will. To remove this song please click here.

Text color:
Chord color:
Chord grids: 
Font size:    
Page size: 

A B E F F#
Rate #1 of 2 versions

Login - add to songbook

SHARE PAGE  




You need to log in to post comments