Guitar Tabs, Chords and Lyrics
Update 25:10. 13:00. Site is back up running again. Songbooks are recovered. Woring on getting search back up..


Somewhere Else  Marillion

MARILLION ?? Somewhere Else
so here it is... the most moving Marillion song...
"Everyone I love lives somewhere else..."
Em, C, Em, C
Am, Gsus4, G, Am, F
[Em] This [C]rock-star trip.[Em].. some [C]serious ship
[Am] White-knuckle [Gsus4]journey [G]blackened my [Am]eye and cut my [F]lip
[Em] Better to be a [C]doctor or a [Em]man who walks the [C]earth
[Am] Hedonistic [Gsus4]laughing [G]boys... [Am]what's any of it [F]worth?..
[Em] Look at my[C]self Look at my[Em]self Look at my[C]self
Look at my[Am]self Look at my[Gsus4]self [G]
Look at my[Am]self Look at my[G]self
[Em] Es[C]caped to the car.[Em].. drove to a [C]bar somewhere
[Am] The beautiful [Gsus4]game... [G]such a thin [Am]line between love and [F]hate
[Em] Look at my[C]self Look at my[Em]self Look at my[C]self
Look at my[Am]self Look at my[Gsus4]self [G]
Look at my[Am]self Look at my[G]self
Mini solo:
 
 e--------------|--------------|----------|--------|
 B--------------|-5-3----------|----------|--------|
 G------------4-|--------------|----------|--------|
 D-2----2-4-5---|-------7---5--|-5/9------|--------|
 A--------------|--------------|----------|--------|
 E--------------|--------------|----------|--------|
 e--------------|--------------|----------|
 B--------------|-5-3----------|----------|
 G------------4-|--------------|----------|
 D-2----2-4-5---|-------7---5--|-7--------|
 A--------------|--------------|----------|
 E--------------|--------------|----------|
 e-----17b(18)r(17)-15-17-|---------|
 B------------------------|-17------|
 G------------------------|---------|
 D------------------------|---------|
 A------------------------|---------|
 E------------------------|---------|

[Em]Mr Taurus [B/D#]ate a thesaurus
[D]Made the girls cry and skipped [A/C#]straight to the chorus
[C]Mr Taurus [G/B]had a great fall
[Bb]All the King's horses were [A]no good at all
[C] No good at [A]all
[Em]Here's [B]one [G]I [A]broke [C]earlier[G/B] [Bb]
[Asus4] [A]I broke e[C]arlier[G/B] [Bb] [A]
Em, C (2x)
then repeat this riff:
 
 e------------------12---|
 B-10---10-12-10-12------|
 G-----------------------|
 D-----------------------|
 A-----------------------|
 E-----------------------|

[Em]Mr Taurus ate a thesaurus
[G]Made the girls cry and skipped straight to the chorus
[Cmaj7]Mr Taurus had a great fall
[Bm]All the King's horses were no good at all
[Em] Woke up in a spaceship.[G].. of shimmering gold
[Cmaj7] Tutenkhamen sleeping.[Bm].. should'a left him alone
[C] Floating round in Orion.[G].. arrow pointing to heaven
[Cmaj7] Between all the planets.[G].. out in the cold
[C] Everyone I love Everyone I [D/F#]love Everyone I love
Everyone I [Cmaj7]love Everyone I [D]love
Everyone I [Em]love lives somewhere else Lives somewhere [Cmaj7]else
And I have time to look at my[C]self
To look at my[D]self To look at my[Em]self To look at myself
To look at my[C]self To look at my[D]self
To look at my[Em]self To look at myself To look at my[C]self
And I've seen enough.[D].. I've seen enough
[Cmaj7] Everyone I love [Em]lives somewhere else
[C] Everyone I [D]love.[Cmaj7].. lives somewhere [Em]else...
[C] [D] Somewhere [Cmaj7]else... somewhere [Em]else...
Somewhere [C]else...

Important: The song above is NOT stored on the Chordie server. The original song is hosted at www.azchords.com. Chordie works as a search engine and provides on-the-fly formatting. Chordie does not index songs against artists'/composers' will. To remove this song please click here.

Text color:
Chord color:
Chord grids: 
Font size:    
Page size: 

A A/C# Am Asus4 B Bb Bm C Cmaj7 D D/F# Em F G G/B Gsus4
Rate #1 of 2 versions

Jango Player

Login - add to songbook

SHARE PAGE  




You need to log in to post comments