Guitar Tabs, Chords and Lyrics
Server problems seems to be fixed. Chordie has been experiencing problems with songs disappearing. These issues now seems to be fixed, but still verifying the fix. If you find anything strange, please email admin@chordie.com.


Bubblegum Bitch   Marina and the Diamonds

 
 PM------------------------------------------------------------------------------------|
 e|---------------------------------------------|-----------------------------------------|
 B|---------------------------------------------|-----------------------------------------|
 G|---------------------------------------------|-----------------------------------------|
 D|-------------8-8-8-8-10-10-10-10-10-10-10-10-|-----------------------------------------| x2
 A|-10-10-10-10-6-6-6-6-8--8--8--8--8--8--8--8--|-6-6-6-6-8-8-8-8-10-10-10-10-10-10-10-10-|
 E|-8--8--8--8----------------------------------|-4-4-4-4-6-6-6-6-8--8--8--8--8--8--8--8--|

 


 


 [Verse 1] 


 

 
 PM------------------------------------------|
 e|---------------------------------------------|
 B|---------------------------------------------|
 G|---------------------------------------------|
 D|-------------8-8-8-8-10-10-10-10-10-10-10-10-| x4
 A|-10-10-10-10-6-6-6-6-8--8--8--8--8--8--8--8--|
 E|-8--8--8--8----------------------------------|

 


 


 [Pre-Cborus] 


 

 
 e|-------------------------------------------|-------------------------------------------|
 B|-------------------------------------------|-------------------------------------------|
 G|-8~-------------------10~------------------|-------------------------------------------|
 D|-8~-------------------10~------------------|-6~------------------10~-------------------|
 A|-6~-------------------8-~------------------|-6~------------------10~-------------------|
 E|-------------------------------------------|-4~------------------8-~-------------------|
 e|-------------------------------------------|-------------------------------------------|
 B|-------------------------------------------|-------------------------------------------|
 G|-8~-------------------10~------------------|-------------------------------------------|
 D|-8~-------------------10~------------------|-5~------------------6~---------8~---------|
 A|-6~-------------------8-~------------------|-5~------------------6~---------8~---------|
 E|-------------------------------------------|-3~------------------4~---------6~---------|

 


 (This part is played with an acoustic tone, use a pedal if necessary)


 


 [Cborus] 


 

 
 e|---------------------------------------------|-----------------------------------------|
 B|---------------------------------------------|-----------------------------------------|
 G|-------------8-8-8-8-10-10-10-10-10-10-10-10-|-----------------------------------------|
 D|-10-10-10-10-8-8-8-8-10-10-10-10-10-10-10-10-|-6-6-6-6-8-8-8-8-10-10-10-10-10-10-10-10-|
 A|-10-10-10-10-6-6-6-6-8--8--8--8--8--8--8--8--|-6-6-6-6-8-8-8-8-10-10-10-10-10-10-10-10-|
 E|-8--8--8--8----------------------------------|-4-4-4-4-6-6-6-6-8--8--8--8--8--8--8--8--|
 e|---------------------------------------------|-----------------------------------------|
 B|---------------------------------------------|-----------------------------------------|
 G|-------------8-8-8-8-10-10-10-10-10-10-10-10-|-----------------------------------------|
 D|-10-10-10-10-8-8-8-8-10-10-10-10-10-10-10-10-|-6-6-6-6-8-8-8-8-6-6-6-6-3-3-3-3---------|
 A|-10-10-10-10-6-6-6-6-8--8--8--8--8--8--8--8--|-6-6-6-6-8-8-8-8-6-6-6-6-3-3-3-3---------|
 E|-8--8--8--8----------------------------------|-4-4-4-4-6-6-6-6-4-4-4-4-1-1-1-1---------|
 e|-----------------------------------------|
 B|-----------------------------------------|
 G|-----------------------------------------|
 D|-6-6-6-6-8-8-8-8-10-10-10-10-10-10-10-10-|
 A|-6-6-6-6-8-8-8-8-10-10-10-10-10-10-10-10-|
 E|-4-4-4-4-6-6-6-6-8--8--8--8--8--8--8--8--|

 


 


 [Post-Cborus] 


 

 
 e|---------------------------------------------|--------------------------------------|
 B|---------------------------------------------|--------------------------------------|
 G|-------------8-8-8-8-10-10-10-10-10-10-10-10-|--------------------------------------|
 D|-10-10-10-10-8-8-8-8-10-10-10-10-10-10-10-10-|-6-6-6-6-8-8-8-8-10-10-10-10-10-10-10-|
 A|-10-10-10-10-6-6-6-6-8--8--8--8--8--8--8--8--|-6-6-6-6-8-8-8-8-10-10-10-10-10-10-10-|
 E|-8--8--8--8----------------------------------|-4-4-4-4-6-6-6-6-8--8--8--8--8--8--8--|

 


 (Note that the last chord is only played 7 times rather than 8)


 


 [Verse 2] 


 

 
 PM------------------------------------------|
 e|---------------------------------------------|
 B|---------------------------------------------|
 G|---------------------------------------------|
 D|-------------8-8-8-8-10-10-10-10-10-10-10-10-| x4
 A|-10-10-10-10-6-6-6-6-8--8--8--8--8--8--8--8--|
 E|-8--8--8--8----------------------------------|

 


 


 [Pre-Cborus] 


 

 
 e|-------------------------------------------|-------------------------------------------|
 B|-------------------------------------------|-------------------------------------------|
 G|-8--------------------10-------------------|-------------------------------------------|
 D|-8--------------------10-------------------|-6-------------------10--------------------|
 A|-6--------------------8--------------------|-6-------------------10--------------------|
 E|-------------------------------------------|-4-------------------8---------------------|
 e|-------------------------------------------|-------------------------------------------|
 B|-------------------------------------------|-------------------------------------------|
 G|-8--------------------10-------------------|-------------------------------------------|
 D|-8--------------------10-------------------|-5-------------------6----------8----------|
 A|-6--------------------8--------------------|-5-------------------6----------8----------|
 E|-------------------------------------------|-3-------------------4----------6----------|

 


 (Again, this part is played with an acoustic tone, use a pedal if necessary)


 


 [Cborus] 


 

 
 e|---------------------------------------------|-----------------------------------------|
 B|---------------------------------------------|-----------------------------------------|
 G|-------------8-8-8-8-10-10-10-10-10-10-10-10-|-----------------------------------------|
 D|-10-10-10-10-8-8-8-8-10-10-10-10-10-10-10-10-|-6-6-6-6-8-8-8-8-10-10-10-10-10-10-10-10-|
 A|-10-10-10-10-6-6-6-6-8--8--8--8--8--8--8--8--|-6-6-6-6-8-8-8-8-10-10-10-10-10-10-10-10-|
 E|-8--8--8--8----------------------------------|-4-4-4-4-6-6-6-6-8--8--8--8--8--8--8--8--|
 e|---------------------------------------------|---------------------------------|
 B|---------------------------------------------|---------------------------------|
 G|-------------8-8-8-8-10-10-10-10-10-10-10-10-|---------------------------------|
 D|-10-10-10-10-8-8-8-8-10-10-10-10-10-10-10-10-|-6-6-6-6-8-8-8-8-6-6-6-6-3-3-3-3-|
 A|-10-10-10-10-6-6-6-6-8--8--8--8--8--8--8--8--|-6-6-6-6-8-8-8-8-6-6-6-6-3-3-3-3-|
 E|-8--8--8--8----------------------------------|-4-4-4-4-6-6-6-6-4-4-4-4-1-1-1-1-|
 e|-----------------------------------------|
 B|-----------------------------------------|
 G|-----------------------------------------|
 D|-6-6-6-6-8-8-8-8-10-10-10-10-10-10-10-10-|
 A|-6-6-6-6-8-8-8-8-10-10-10-10-10-10-10-10-|
 E|-4-4-4-4-6-6-6-6-8--8--8--8--8--8--8--8--|

 


 


 [Bridge] 


 

 
 PM---------------------------------|
 e|-----------------|-----------------|
 B|-----------------|-----------------|
 G|-----------------|-----------------|
 D|-8-8-8-8-8-8-8-8-|-6-6-6-6-6-6-6-6-|
 A|-8-8-8-8-8-8-8-8-|-6-6-6-6-6-6-6-6-|
 E|-6-6-6-6-6-6-6-6-|-4-4-4-4-4-4-4-4-|
 PM---------------|
 e|-----------------|-------------------------------------------|
 B|-----------------|-------------------------------------------|
 G|-----------------|-------------------------------------------|
 D|-8-8-8-8-8-8-8-8-|-5-------------------5----------8----------|
 A|-8-8-8-8-8-8-8-8-|-5-------------------5----------8----------|
 E|-6-6-6-6-6-6-6-6-|-3-------------------4----------6----------|

 


 [Solo] 


 

 
 e|---------------------------|----------------------------|
 B|-13~-----11~------9~-------|----------------------------|
 G|---------------------------|-8~------10~----------------|
 D|---------------------------|------------------10~-------|
 A|---------------------------|----------------------------|
 E|---------------------------|----------------------------|
 e|---------------------------|----------------------------|
 B|-13~-----11~------9~-------|----------------------------|
 G|---------------------------|-8~------10~------8~--------|
 D|---------------------------|------------------------10~-|
 A|---------------------------|----------------------------|
 E|---------------------------|----------------------------|

 


 


 [Cborus] x2


 

 
 e|---------------------------------------------|-----------------------------------------|
 B|---------------------------------------------|-----------------------------------------|
 G|-------------8-8-8-8-10-10-10-10-10-10-10-10-|-----------------------------------------|
 D|-10-10-10-10-8-8-8-8-10-10-10-10-10-10-10-10-|-6-6-6-6-8-8-8-8-10-10-10-10-10-10-10-10-|
 A|-10-10-10-10-6-6-6-6-8--8--8--8--8--8--8--8--|-6-6-6-6-8-8-8-8-10-10-10-10-10-10-10-10-|
 E|-8--8--8--8----------------------------------|-4-4-4-4-6-6-6-6-8--8--8--8--8--8--8--8--|
 e|---------------------------------------------|---------------------------------|
 B|---------------------------------------------|---------------------------------|
 G|-------------8-8-8-8-10-10-10-10-10-10-10-10-|---------------------------------|
 D|-10-10-10-10-8-8-8-8-10-10-10-10-10-10-10-10-|-6-6-6-6-8-8-8-8-6-6-6-6-3-3-3-3-|
 A|-10-10-10-10-6-6-6-6-8--8--8--8--8--8--8--8--|-6-6-6-6-8-8-8-8-6-6-6-6-3-3-3-3-|
 E|-8--8--8--8----------------------------------|-4-4-4-4-6-6-6-6-4-4-4-4-1-1-1-1-|
 e|-----------------------------------------|
 B|-----------------------------------------|
 G|-----------------------------------------|
 D|-6-6-6-6-8-8-8-8-10-10-10-10-10-10-10-10-|
 A|-6-6-6-6-8-8-8-8-10-10-10-10-10-10-10-10-|
 E|-4-4-4-4-6-6-6-6-8--8--8--8--8--8--8--8--| 


Important: The song above is NOT stored on the Chordie server. The original song is hosted at www.azchords.com. Chordie works as a search engine and provides on-the-fly formatting. Chordie does not index songs against artists'/composers' will. To remove this song please click here.

This song is displayed as text-only. Transposing and tuning is only available for chordpro-songs.
Rate #1 of 6 versions

Login - add to songbook

SHARE PAGE  



You need to log in to post comments