Guitar Tabs, Chords and Lyrics
Server problems seems to be fixed. Chordie has been experiencing problems with songs disappearing. These issues now seems to be fixed, but still verifying the fix. If you find anything strange, please email admin@chordie.com.


All That Matters  Mark Knopfler

While there are already two tabs for this song they are unnecessarily
complicated, the song is much easier to play with Capo 3 and incidentally
that's what Mark Knopfler plays it like as well, if you have a look on
The tab-parts are from the other tab uploaded by BYUfan I just included them for
the sake of completeness.
So there you go:
Intro:
[G] [Dm] [G] [Dm] [G] [C]  
 
 e|--------------------------------------------------------------------------|
 B|--------6----9---8---6-------------6------9--8----6-----------------------|
 G|-----7---------------------------7---------------------8--10--8------8----|
 D|--8----------------------8-----8---------------------8-----------5h6------|
 A|-----------------------------------------------------------------------6--|
 E|--------------------------------------------------------------------------|

Verse: 1
[C]My darling girl
My darling girl
You're all that matters
[C]In this wicked [F]world
[F]All that [G]matters
[G]All that [F]matters [G]
Verse: 2
[C]My darling boy
My darling boy
All of my sunshine
[C]And all of my [F]joy
[F]You're all matte[G]rs
[G]All that [C]matters
Chorus:
[C]Well, I can't stop the pain
[C]When it [F]calls I'm a m[G]an
[G]And I can't stop the [E]rain
[E]When it [Am]falls my d[F]arling
[G]Who can?. [Dm] [G]
Verse: 3
[C]My darling girl
My darling girl
You're all that matters
[C]In this wicked [F]world
[F]All that [G]matters
[G]All that [F]matters [G]
Solo: 1
 
 e|--------------------------------------------------------------|
 B|---------6---8------6---8------------6---6h8----6--8----------|
 G|-----8---------------------8------8--------------------8---5--|
 D|--8--------------8-----------8--8------------8----------------|
 A|--------------------------------------------------------------|
 E|--------------------------------------------------------------|
 e|-----------------------------------------------------------|
 B|---9--8--8---6----6--------8--6------------------------6---|
 G|---------------------7-----------8--8---5-----5--7---8-----|
 D|-----------------------8-----------------------------------|
 A|-----------------------------------------------------------|
 E|-----------------------------------------------------------|
 e|-------------------------------------------------------------------|
 B|----------6--6b8----6--8------------6--6b8----6--6b8b6p4-----------|
 G|-------8-----------------8--------8-----------------------5--------|
 D|-----8------------8--------8----8-----------8----------------------|
 A|-------------------------------------------------------------------|
 E|-------------------------------------------------------------------|

~ ~
 
 e|---------------------------------------------------------------|
 B|---9---8--8---6------------6-----11---------6---6b8---6b8b6--4-|
 G|------------------------\7----7--------------------------------|
 D|---------------------------------------------------------------|
 A|---------------------------------------------------------------|
 E|---------------------------------------------------------------|
 e|-----------------|
 B|-----------------|
 G|---------8-------|
 D|---5h6-----------|
 A|-------------6---|
 E|-----------------|

Chorus:
[C]Well, I can't stop the pain
[C]When it [F]calls I'm a m[G]an
[G]And I can't stop the [E]rain
[E]When it [Am]falls my d[F]arling
[G]Who can?. [Dm] [G]
Verse: 4
[C]My darling girl
My darling girl
You're all that matters
[C]In this wicked [F]world
[F]All that [G]matters
[G]All that [F]matters [G]
Verse: 5
[C]My darling friend
My darling friend
All we've got going
[C]Is love in the [F]end
[F]It's all that [G]matters
[G]All that [C]matters
[F]All that [G]matters
[G]All that [C]matters [F] [C]

Important: The song above is NOT stored on the Chordie server. The original song is hosted at www.azchords.com. Chordie works as a search engine and provides on-the-fly formatting. Chordie does not index songs against artists'/composers' will. To remove this song please click here.

Text color:
Chord color:
Chord grids: 
Font size:    
Page size: 

Am C Dm E F G
Rate #1 of 7 versions

Login - add to songbook

SHARE PAGE  



You need to log in to post comments