Guitar Tabs, Chords and Lyrics
Server problems seems to be fixed. Chordie has been experiencing problems with songs disappearing. These issues now seems to be fixed, but still verifying the fix. If you find anything strange, please email admin@chordie.com.


Je suis désolé  Mark Knopfler

| Bm | Bm | Bm | Bm | Bm | Bm | A | E | x2
| G | G | G | Bm | Bm | Bm | Bm
This is not exactly how it is played on the album, but now you have somewhere to start.
 
 e|------------------------------------|
 B|------7---7--------------------5/7--|
 G|------------9-7------------7--------|
 D|--7-9-----------9------7-9----------|
 A|------------------------------------|
 E|------------------------------------|
 e|------5-----------------------------|
 B|--5/7----7-5--------5----5-7--5-----|
 G|-------------7-4--7----7------------|
 D|------------------------------------|
 A|------------------------------------|
 E|------------------------------------|

Play like twice and then...
 
 e|------------------------------------|
 B|------------------------------------|
 G|--7~-----7-4---4-----4-2------------|
 D|--------x----7-----------4----------|
 A|-------x-------------------2--------|
 E|------------------------------------|

We are le[Bm]aving, leaving
Leaving on the tide
Come and stand beside me love
The wa[A]ter is so wi[E]de
You can [Bm]hear the sailors calling
At the dawning of the day
Yesterday is falling, love
And j[A]e suis des[E]ole
j[G]e suis desole[Bm]
J[D]e suis des[G]ole, mais je n'ai pas le cho[A]ix
Je suis deso[D]le, mais la v[A]ie me demande [D]ca
J[A]e suis des[D]ole, mais j[G]e n'ai pas le ch[D]oix
J[Bm]e suis desol[D]e, mais la v[A]ie me demande c[D]a[A] [D]
I am tu[Bm]rning, turning
Look ahead my darling one
A[E]cross the rolling s[A]well
And you can h[Bm]ear the seagulls crying
As we're slipping out of the bay
Yesterday is dying, love
And j[A]e suis des[E]ole
j[G]e suis desole[Bm]
J[D]e suis des[G]ole, mais je n'ai pas le cho[A]ix
Je suis deso[D]le, mais la v[A]ie me demande [D]ca
J[A]e suis des[D]ole, mais j[G]e n'ai pas le ch[D]oix
J[Bm]e suis desol[D]e, mais la v[A]ie me demande c[D]a[A] [D]
We are sa[Bm]iling, sailing
For a land that's proud and free
I had no more endurance
For what h[A]ad become of [E]me
And I will [Bm]do that which I must do, love
And now we're under way
All that I can say to you
Is j[A]e suis des[E]ole
j[G]e suis desole[Bm]
J[D]e suis des[G]ole, mais je n'ai pas le cho[A]ix
Je suis deso[D]le, mais la v[A]ie me demande [D]ca
J[A]e suis des[D]ole, mais j[G]e n'ai pas le ch[D]oix
J[Bm]e suis desol[D]e, mais la v[A]ie me demande c[D]a[A] [D]

Important: The song above is NOT stored on the Chordie server. The original song is hosted at www.azchords.com. Chordie works as a search engine and provides on-the-fly formatting. Chordie does not index songs against artists'/composers' will. To remove this song please click here.

Text color:
Chord color:
Chord grids: 
Font size:    
Page size: 

A Bm D E G
Rate #1 of 3 versions

Jango Player

Login - add to songbook

SHARE PAGE  




You need to log in to post comments