Guitar Tabs, Chords and Lyrics
Login is temporarily disabled for some users. Do not panic. Will be back in an hour or two. DO NOT REREGISTER!!


Song for Sonny Liston  Mark Knopfler

i saw that this one wasn't on so i though i put it on, i don,t tabbed it, it's from a
knopfler tab site
here it is:
Intro
 
 ---------|-------|---------|------------------------||
 ------------|--------|---------|--------------------||
 ------------|--------|-------------|----------------||
 -6-6-4>6-|-4^6-2-|-6-6-4>6-|-4^6-2-------|----------||
 -4-4-2>4-|-------|-4-4-2>4-|-------4^2^4------------||
 ------------|-------|------------|------------------||

verse 1:
 
 -----------------|---------|-------|
 -----------------|---------|-------|
 ---6---6---6---6-|---------|-------|
 ---6---6---6---6-|---6-4>6-|-4^6-2-|
 -4---4---4---4---|-x-4-2>4-|-------|
 -----------------|---------|-------|

so many mouths to feed on the farm
 
 -----------------|---------|-------------|
 -----------------|---------|-------------|
 ---6---6---6---6-|---------|-------------|
 ---6---6---6---6-|---6-4>6-|-4^6-2-------|
 -4---4---4---4---|-x-4-2>4-|-------4^2^4-|
 -----------------|---------|-------------|

sonny was the second to the last one born
his mamma ran away and his daddy beat him bad
 
 -----------------|---------|-------|
 -----------------|---------|-------|
 ---6---6---6---6-|---------|-------|
 ---6---6---6---6-|---6-4>6-|-4^6-2-|
 -4---4---4---4---|-x-4-2>4-|-------|
 -----------------|---------|-------|

and he grew up wild good love he never had
 
 -----------------|-----------------||
 -----------------|-----------------||
 ---6---6---6---6-|---6---6---6---6-||:
 ---6---6---6---6-|---6---6---6---6-||
 -4---4---4---4---|-4---4---4---4---||
 -----------------|-----------------||

he had a left like henry's hammer
a right like betty bamalam
rode with the muggers in the dark and dread
and all them sluggers went down like lead
 
 -------------|
 -------------|
 -------------|
 -5-4-2-------|
 ---------4-2-|
 -------------|

(like verse 1)
well he hung with the hoods he wouldn't stroke the fans
but he had dynamite in both his hands
boom bam like the slammer door
the bell and the can and the bodies on the floor
beware the bear's in town
somebody's money says the bear's going down
yeah, the bear never smiles
sonny's going down for miles and miles
sonny's going down for miles and miles
the writers didn't like him the fight game jocks
with his lowlife backers and his hands like rocks
they didn't want to have a bogey man
[F#]  
they didn't like him and he didn't like them
black cadillac alligator boots
money in the pockets of his sharkskin suits
some say the bear took a flop they couldn't believe it when they saw him drop
 
 --------|----------|--------|
 -6------|-5--------|-6------|
 -4------|-6--------|-4------|
 -4------|-4--------|-4------|
 --------|----------|--------|
 --------|----------|--------|

he had a left like henry's hammer
a right like betty bamalam
rode with the muggers in the dark and dread
and all them sluggers went down like lead
 
 -------------|
 -------------|
 -------------|
 -5-4-2-------|
 ---------4-2-|
 -------------|

joe louis was his hero he tried to be the same
but a criminal child wears a ball and chain
so the civil rights people didn't want him on the throne
and the hacks and the cops wouldn't leave him alone
beware the bear's in town somebody's money says
the bear's going down
yeah, the bear never smiles
sonny's going down for miles and miles
sonny's going down for miles and miles
at the foot of his bed with his feet on the floor
there was dope in his veins and a pistol on the drawer
there was no investigation as such
he hated needles but he knew too much
[F#]criss-crossed on his back
scars from his daddy like slavery tracks
the second-last child was the second-last king never again was it the same in the ring
 
 --------|----------|--------|
 -6------|-5--------|-6------|
 -4------|-6--------|-4------|
 -4------|-4--------|-4------|
 --------|----------|--------|
 --------|----------|--------|

he had a left like henry's hammer
a right like betty bamalam
rode with the muggers in the dark and dread
and all them sluggers went down like lead
 
 -------------|
 -------------|
 -------------|
 -5-4-2-------|
 ---------4-2-|
 -------------|

they never could be sure about the day he was born
a motherless child set to working on the farm
and they never could be sure about the day he died
the bear was the king they cast aside
beware the bear's in town
somebody's money says the bear's going down
yeah, the bear never smiles
sonny's going down for miles and miles
sonny's going down for miles and miles
hope you can use it

Important: The song above is NOT stored on the Chordie server. The original song is hosted at www.azchords.com. Chordie works as a search engine and provides on-the-fly formatting. Chordie does not index songs against artists'/composers' will. To remove this song please click here.

Text color:
Chord color:
Chord grids: 
Font size:    
Page size: 

F#
Rate #2 of 2 versions

Login - add to songbook

SHARE PAGE  




You need to log in to post comments