Guitar Tabs, Chords and Lyrics
Server problems seems to be fixed. Chordie has been experiencing problems with songs disappearing. These issues now seems to be fixed, but still verifying the fix. If you find anything strange, please email admin@chordie.com.


What It Is  Mark Knopfler

No Capo
Verse riff:
 
 E|-----------------------------------------------------------------------------------|
 B|-10--------------10--------------------10--------------10--------------------------|
 G|-9h11-11-11p9----9h11-9----9-11~--9~---9h11-11-11p9----9h11-9----9-11~-------------|
 D|--------------11--------11--------------------------11--------11-------11-9-7~-9~--|
 A|-----------------------------------------------------------------------------------|
 E|-----------------------------------------------------------------------------------| (x2)

Chorus riff:
 
 E|--------------------------------------------------|
 H|------------------5h7~--5h7p5----6/7-7------------|
 G|---2h4/6/4p2-----6--------------------6-----------|
 D|-4--------------7----------------------7----------|
 A|--------------------------------------------9brp7-|
 E|--------------------------------------------------|

Intro:
[F#m] [D] [A]  
[F#m] [D] [E]  
Verse 1:
The [F#m]drinking dens are spilling out and stag[A]gering in the square
There`s [D]lads and lassies falling about and a cr[A]ackling in the [E]air
[F#m]Down around the dungeon doors, the sh[A]elters and the queues
[D]Everybody`s looking for some[A]body`s arms to f[E]all into this way...
Chorus 1:
It`s what it is[F#m] [D] [A]
It`s what it is [F#m]now[D] [E]
Verse 2:
There`s [F#m]frost on the graves and the monuments but the t[A]averns are warm in town
[D]People curse the government and [A]shovel hot food [E]down
[F#m]Lights are out in city hall, the [A]castle and the keep
[F#m]Moon shines down upon it all the [A]legless and [E]asleep
Pre-Chorus 1:
[D]Cold on the tollgate where the wag[A]ons creeping through
[D]Cold on the tollgate, god kn[A]ows what I [E]can do with you, its what it is...
Chorus 2:
It`s what it is[F#m] [D] [A]
It`s what it is [F#m]now[D] [E]
Verse 3:
[F#m]The garnison sleeps in the citadel with the [A]ghosts and the ancient stones
[F#m]High on the parapet the scottish p[A]ipers st[E]ands alone
[F#m]High on the wind the highland dr[A]ums begin to roll
[F#m]And something from the past just [A]comes and stares [E]into my soul
Pre-Chorus 2:
[D]Cold on the tollgate where the[A] caledonian blues
[D]Cold on the tollgate, god k[A]nows what I can do [E]with you, its what it is
Chorus 3:
It`s what it is[F#m] [D] [A]
It`s what it is [F#m]now[D] [E]
It`s what it is[F#m] [D] [A]
It`s what it is [F#m]now[D] [E]
(Instrumental break, verse and chorus)
Verse 4:
There's a [F#m]chink of light as a burning wick, there's a [A]lantern in the tower
[F#m]Wee Willie Winkie with the candle sticks still wr[A]iting songs in the [E]wee wee hours
On [F#m]Charlotte Street they take a walking [A]stick from my hotel
[F#m]The ghost of Dirty Dick is still in [A]search of Little [E]Nell, its what it is...
Chorus 4:
It`s what it is[F#m] [D] [A]
It`s what it is [F#m]now[D] [E]
It`s what it is[F#m] [D] [A]
It`s what it is [F#m]now...[D] [E]
(guitar solo till end)

Important: The song above is NOT stored on the Chordie server. The original song is hosted at www.azchords.com. Chordie works as a search engine and provides on-the-fly formatting. Chordie does not index songs against artists'/composers' will. To remove this song please click here.

Text color:
Chord color:
Chord grids: 
Font size:    
Page size: 

A D E F#m
Rate #2 of 7 versions

Jango Player

Login - add to songbook

SHARE PAGE  



You need to log in to post comments