Guitar Tabs, Chords and Lyrics
Update 25:10. 13:00. Site is back up running again. Songbooks are recovered. Woring on getting search back up..


Don't Forget Me  Mark Lanegan

Song title: Don‚??t Forget Me
*Notes: Capo on 1st feet.*
*Intro (piano)*: (Am)
 
 e|--------------------------------------------------------------|
 B|-------1-----------1------------1-----------------------------|
 G|-----2---2-------2---2--------2---2----2----------------------|
 D|---2-------2---2-------2----2-------2-------------------------|
 A|-0-----------0------------0------------0----------------------|
 E|--------------------------------------------------------------|

Cool water div[D]ine
Now I'm t[F]hirsty with n[E]owhere to g[Am]o
And what else do we f[D]ind
But [F]sorrow and [E]misery un[Am]told
I know you got [D]somebody new[F]
Much [E]better than [Am]me
When that change starts to [D]swing, keep in mind one [F]thing
[E]Don't forget me d[Am]ear
And when you're [D]lost I feel it [Am]too
[E]Woman make [Am]life sweet
Be[D]cause of what you [Am]do, [E]all my world [Am]is you
Now I know it's no[D]t easy
Don't be[F]lieve them when they [E]say I'm n[Am]ot right
Don't put a hex on me [D]baby
Be[F]cause I don't [E]know what's wrong [Am]or right
I know that there's s[D]omebody new[F]
Much [E]better than [Am]me
But because my love is [D]true, all my best to [F]you
[E]Don't forget me [Am]dear
*During solo*: D Am E Am D Am E Am
*Solo*:
 
 e|------------5-5-5~---8-7-5---5--5-5~---------------------------------------|
 B|-5~---5-6-8----------------8---------------5--6--5-----5--6‚??5h6-5~---------|
 G|---------------------------------------5-7----------7----------------------|
 D|---------------------------------------------------------------------------|
 A|---------------------------------------------------------------------------|
 E|---------------------------------------------------------------------------|
 e|---------5-5---8--7--8---/10-8-7-------------------------------------------|
 B|--5-6-8-------------------------10~------10p8p7h8--10--8-------------------|
 G|----------------------------------------------------------9--7-------------|
 D|---------------------------------------------------------------------------|
 A|---------------------------------------------------------------------------|
 E|---------------------------------------------------------------------------|
 e|-------------------------------------5--8--7‚??-5~---------------------------|
 B|--5/6--6-5---3----3‚??-5~-------5-6-8----------------------------------------|
 G|---------------5-----------------------------------------------------------|
 D|---------------------------------------------------------------------------|
 A|---------------------------------------------------------------------------|
 E|---------------------------------------------------------------------------|

And when you're [D]alone please take [Am]care
Don't go [E]walking after [Am]dark
Shine[D] a light behind the[Am] stair
Remember [E]what might be in[Am] there
Cool water [D]divine
Now I'm [F]thristier with [E]nowhere to [Am]go
It's sorrow that we[D] find
I'm [F]thirstier with no [E]where to [Am]go
I know that there's [D]somebody new[F]
Much [E]better than [Am]me
When that change starts to [D]swing, keep in mind one [F]thing
[E]Don't forget me [Am]dear
Because my love is [D]true, give my best to [F]you
[E]Don't forget me [Am]dear
*Outro (piano)*: (Am)
 
 e|--------------------------------------------------------------|
 B|-------1-----------1------------1-----------------------------|
 G|-----2---2-------2---2--------2---2----2----------------------|
 D|---2-------2---2-------2----2-------2-------------------------|
 A|-0-----------0------------0------------0----------------------|
 E|--------------------------------------------------------------|


Important: The song above is NOT stored on the Chordie server. The original song is hosted at www.azchords.com. Chordie works as a search engine and provides on-the-fly formatting. Chordie does not index songs against artists'/composers' will. To remove this song please click here.

Text color:
Chord color:
Chord grids: 
Font size:    
Page size: 

Am D E F
Rate #1 of 2 versions

Login - add to songbook

SHARE PAGE  




You need to log in to post comments