Guitar Tabs, Chords and Lyrics
Server problems seems to be fixed. Chordie has been experiencing problems with songs disappearing. These issues now seems to be fixed, but still verifying the fix. If you find anything strange, please email admin@chordie.com.


Mary Did You Know  Mark Lowry

Tuning: Standard
Key: Am
The letters above each tab number are the first letters of the lyrics. For example,
"Did you know"
would be like: "D Y K"
Hope you enjoy and Merry Christmas!
VERSE ONE
Ma-ry D Y K T Y Ba-by B W S D W O Wa-ter
 
 e|-----------0--0-----0--3--------------------------0------------------------|
 B|--0--1--3-----1--1-----3--1--0--------0--1--3--1--0------------------------|
 G|--------------2--------0--------0--2--------------2------------------------|
 D|--------------2--------0--------------------------2------------------------|
 A|--------------0--------x--------------------------x------------------------|
 E|--------------x--------x--------------------------x------------------------|

(R[Am]ing) (R[G]ing) ([Esus]Ring)
Ma-ry D Y K T Y Ba-by B W S O S A Dau-ghters
 
 e|--0-----------0-----0--3--------------------------0------------------------|
 B|-----3--1--3--1--1-----3--1--0--------0--1--3--1--0------------------------|
 G|--------------2--------0--------0--2--------------1------------------------|
 D|--------------2--------0--------------------------2------------------------|
 A|--------------0--------x--------------------------2------------------------|
 E|--------------X--------x--------------------------2------------------------|

(R[Am]ing) (R[G]ing) (R[E]ing)
D Y K T Y Ba-by B H C T M Y N
 
 e|--0--3--5-----5--8--7--5--3--0--0--3--3--5--5------------------------------|
 B|--------------------------3-----------------5------------------------------|
 G|--------------------------0-----------------5------------------------------|
 D|--------------------------0-----------------7------------------------------|
 A|--------------------------x-----------------7------------------------------|
 E|--------------------------x-----------------5------------------------------|

(R[G]ing) (R[Am]ing)
T C T Y De-liv-ered W S De-liv-er Y
 
 e|--0--1--1--1--3--1--0--------0-----------0---------------------------------|
 B|-----1--------------------0--0--0--0--1--0---------------------------------|
 G|-----2-----------------------2-----------1---------------------------------|
 D|-----0-----------------------2-----------2---------------------------------|
 A|-----x-----------------------x-----------2---------------------------------|
 E|-----x-----------------------x-----------0---------------------------------|

([Dm7]Ring) [Esus] (R[E]ing)
VERSE TWO
Ma-ry D Y K T Y Ba-by B W G S T A B M
 
 e|-----------0--0-----0--3--------------------------0------------------------|
 B|--0--1--3-----1--1-----3--1--0--------0--1--3--1--0------------------------|
 G|--------------2--------0--------0--2--------------2------------------------|
 D|--------------2--------0--------------------------2------------------------|
 A|--------------0--------x--------------------------x------------------------|
 E|--------------x--------x--------------------------x------------------------|

(R[Am]ing) (R[G]ing) ([Esus]Ring)
Ma-ry D Y K T Y Ba-by B W C T S W H H
 
 e|--0-----------0-----0--3--------------------------0------------------------|
 B|-----3--1--3--1--1-----3--1--0--------0--1--3--1--0------------------------|
 G|--------------2--------0--------0--2--------------1------------------------|
 D|--------------2--------0--------------------------2------------------------|
 A|--------------0--------x--------------------------2------------------------|
 E|--------------x--------x--------------------------x------------------------|

(R[Am]ing) (R[G]ing) (R[E]ing)
D Y K T Y Ba-by B H W W An-gels T
 
 e|--0--3--5-----5--8--7--5--3--0--0--3--3--5---5-----------------------------|
 B|--------------------------3------------------5-----------------------------|
 G|--------------------------0------------------5-----------------------------|
 D|--------------------------0------------------7-----------------------------|
 A|--------------------------x------------------7-----------------------------|
 E|--------------------------x------------------5-----------------------------|

(R[G]ing) (R[Am]ing)
W Y K Y Li-ttle Ba-by T Y K T S O G
 
 e|--0--1--1--1--1--3----1--0--------0-----------0----------------------------|
 B|--------1-------------------0--0--0--0--0--1--0----------------------------|
 G|--------2-------------------------2-----------1----------------------------|
 D|--------0-------------------------2-----------2----------------------------|
 A|--------x-------------------------x-----------2----------------------------|
 E|--------x-------------------------x-----------0----------------------------|

([Dm7]Ring) [Esus] (R[E]ing)
INTERLUDE:
 
 e|--0--8--7--5--3--5---------------------------------------------------------|
 B|-----------------5---------------------------------------------------------|
 G|-----------------5---------------------------------------------------------|
 D|-----------------7---------------------------------------------------------|
 A|-----------------7---------------------------------------------------------|
 E|-----------------5---------------------------------------------------------|

[Am]  
Chord Break: G Dm7 Esus E
CHORUS:
T B W S T D W H T D W L Ag-ain
 
 e|---1--1--1--1--3--3--3--3--5--5--3--3--1------------------------------------|
 B|---1-----------3-----------5-----3-----1------------------------------------|
 G|---2-----------0-----------5-----0-----2------------------------------------|
 D|---3-----------0-----------7-----0-----3------------------------------------|
 A|---3-----------x-----------7-----x-----3------------------------------------|
 E|---X-----------x-----------5-----x-----x------------------------------------|

(R[F]ing) (R[G]ing)[Am] [G] [F]
T L W L T D W S T P O T L
 
 e|---1--1--1--1--0--0--0--0--5--5--5--0------------------------------------------|
 B|---1-----------0-----0-----5--------10-----------------------------------------|
 G|---2-----------2-----1-----5--------9------------------------------------------|
 D|---0-----------2-----2-----7--------9------------------------------------------|
 A|---x-----------x-----2-----7--------x------------------------------------------|
 E|---x-----------x-----0-----5--------x------------------------------------------|

Dm7 Esus E Am Esus?
(Ring)
VERSE 3:
Ma-ry D Y K T Y Ba-by B I T L O A Cre-ation
 
 e|-----------0--0-----0--3--------------------------0------------------------|
 B|--0--1--3-----1--1-----3--1--0--------0--1--3--1--0------------------------|
 G|--------------2--------0--------0--2--------------2------------------------|
 D|--------------2--------0--------------------------2------------------------|
 A|--------------0--------x--------------------------x------------------------|
 E|--------------x--------x--------------------------x------------------------|

(R[Am]ing) (R[G]ing) ([Esus]Ring)
Ma-ry D Y K T Y Ba-by B W O D R T Na-tions
 
 e|--0-----------0-----0--3--------------------------0------------------------|
 B|-----3--1--3--1--1-----3--1--0--------0--1--3--1--0------------------------|
 G|--------------2--------0--------0--2--------------1------------------------|
 D|--------------2--------0--------------------------2------------------------|
 A|--------------0--------x--------------------------2------------------------|
 E|--------------x--------x--------------------------x------------------------|

(R[Am]ing) (R[G]ing) (R[E]ing)
D Y K T Y Ba-by B W Hea-ven's Per-fect L
 
 e|--0--3--5-----5--8--7--5--3--0--0--3------3---5---5------------------------|
 B|--------------------------3-----------------------5------------------------|
 G|--------------------------0-----------------------5------------------------|
 D|--------------------------0-----------------------7------------------------|
 A|--------------------------x-----------------------7------------------------|
 E|--------------------------x-----------------------5------------------------|

(R[G]ing) (R[Am]ing)
T Sle-eping C Y Hold-ing I T G I A
 
 e|--0--1--1-----1--3--1---0---0-----0--0--------------0--5---------------------|
 B|-----1-------------------------0--0--0-----------1---------------------------|
 G|-----2----------------------------2--1--------2------------------------------|
 D|-----0----------------------------2--2-----2---------------------------------|
 A|-----x----------------------------x--2--0------------------------------------|
 E|-----x----------------------------x--0---------------------------------------|

Dm7 Esus E Am (Pick out this chord like above)
(Ring) (Ring)

Important: The song above is NOT stored on the Chordie server. The original song is hosted at www.azchords.com. Chordie works as a search engine and provides on-the-fly formatting. Chordie does not index songs against artists'/composers' will. To remove this song please click here.

Text color:
Chord color:
Chord grids: 
Font size:    
Page size: 

Am Dm7 E Esus F G
Rate #1 of 7 versions

Login - add to songbook

SHARE PAGE  




You need to log in to post comments