Guitar Tabs, Chords and Lyrics
Update 25:10. 13:00. Site is back up running again. Songbooks are recovered. Woring on getting search back up..


Texas on My Mind  The Marshall Tucker Band

Band: Marshall Tucker Band
Legend:
h= hammer on
p= pull off
b= bend
r= release bend
/= slide up
\= slide down
x= muted note
~= vibrato
Intro Solo:
 
 e|-------------------------------------------------|
 B|---------------7~~~--7-8-10-8-7h8p7---7----------|
 G|------------------------------------9---9-9------|
 D|--7--7-9--9-7------------------------------------|
 A|-------------------------------------------------|
 E|-------------------------------------------------|
 e|----------------------------10/12\10-------------|
 B|----------------------------10/12\10-------------|
 G|----7-9b-9b-9b-9-7---9-7---------------9brp7-----|
 D|--9----------------9-----------------------------|
 A|-------------------------------------------------|
 E|-------------------------------------------------|

Fills/Leads:
0:41
 
 e|-----------------------------------------------|
 B|---------------7-8--8--7~~----------7-8-8--7---|
 G|-----------7-9----------------7-9-9------------|
 D|-------7-9-------------------------------------|
 A|-5/7-9-----------------------------------------|
 E|-----------------------------------------------|

0:53
 
 e|---------------------------|
 B|-7h8p7---------------------|
 G|---------7brp5~~-----------|
 D|---------------------------|
 A|---------------------------|
 E|---------------------------|

0:59
 
 e|---------------------------|
 B|---------------------------|
 G|---------------------------|
 D|---------------------------|
 A|----5--7b--5---------------|
 E|--7------------------------|

1:10
 
 e|--------------------------------------------------|
 B|-----7h8p7----------------------------------------|
 G|-7-9-------9-9----7h9??7h9p7---7----7-7/6--6-6/4---|
 D|----------------------------9---------------------|
 A|--------------------------------------------------|
 E|--------------------------------------------------|

1:21
 
 e|------------------------|
 B|--/15--17----17b--------|
 G|------------------------|
 D|------------------------|
 A|------------------------|
 E|------------------------|

1:42
 
 e|-------------------------------------|
 B|--------------7-7-----10-8p7---8p7---|
 G|--x-9b--9-7-9-----9-7--------9-------|
 D|-------------------------------------|
 A|-------------------------------------|
 E|-------------------------------------|

1:51
 
 e|---------------------|
 B|---------------------|
 G|--14b--x--14---------|
 D|---------------------|
 A|---------------------|
 E|---------------------|

1:57
 
 e|-----------------|
 B|-----------------|
 G|--9b---9b--7-----|
 D|-----------------|
 A|-----------------|
 E|-----------------|

2:01
 
 e|---------------------|
 B|------10-------------|
 G|--9b------10--9------|
 D|---------------------|
 A|---------------------|
 E|---------------------|

2:08
 
 e|------------------------------------------|
 B|------------------------------------------|
 G|--9b-9-7---9b-9-7---9b-9-7---9-7----7-7-7-|
 D|---------------------------9--------------|
 A|------------------------------------------|
 E|------------------------------------------|

3:09
 
 e|-------------------------------------|
 B|------------19-20-22-22-22-22-22~~---|
 G|------19-21--------------------------|
 D|--/21--------------------------------|
 A|-------------------------------------|
 E|-------------------------------------|

3:18
 
 e|--------------------------------|
 B|-----10-------------------------|
 G|--9b----9b-9-7---9b-9-7---7-----|
 D|---------------9--------9-------|
 A|--------------------------------|
 E|--------------------------------|

3:25
 
 e|------------------------|
 B|------------------------|
 G|------------------------|
 D|-----------7------------|
 A|--5/7-9-10---10-9-------|
 E|------------------------|

3:36
 
 e|----------------------|
 B|----------------------|
 G|--------7-9-7---------|
 D|--/7--9---------------|
 A|----------------------|
 E|----------------------|

3:39
 
 e|---------------------------------|
 B|------7-8-10-8-7-8-7---7---------|
 G|--7-9----------------9---9-9-7---|
 D|---------------------------------|
 A|---------------------------------|
 E|---------------------------------|

3:43
 
 e|----------------------------------|
 B|--------15-17p15----15-15--17-17--|
 G|--x-/16----------16---------------|
 D|----------------------------------|
 A|----------------------------------|
 E|----------------------------------|

3:49
 
 e|--------------------------------------|
 B|--------------------------------------|
 G|------------7-9--9p7---7-9p7---7~~----|
 D|--------7-9----------9-------9--------|
 A|--5/7-9-------------------------------|
 E|--------------------------------------|

(Verse 1)
I can't be[D]lieve this time I'm [D7]leaving
[G] All along I you though [Gm]I'd stay
But a [D]man's got to do what his [Bm]heart tells him to
Come [E]what may[A]
So I [D]guess this time [D7]tomorrow
[G] I'll be on my [Gm]way
'Cause I've got [D]Texas [D] [Fm]on [Em]my mind[A7]
Again to[D]day[G] [D]
(Verse 2)
I can't de[D]ny I've had this [D7]feeling
[G] Every minute I've been [Gm]gone
But [D]someday you will see,
[Bm]You will forget me [E]movin' on[A]
So when the [D]sun comes up [D7]tomorrow
[G] That's the end of my [Gm]stay
'Cause I had [D]Texas [D] [Fm]on [Em]my mind[A7]
Again to[D]day
Guitar Solo:
 
 e|--------------------------------------------------|
 B|-/19-20-22-22~~---19-20-22-22b--22--20-22---------|
 G|------------------------------------------21b-----|
 D|--------------------------------------------------|
 A|--------------------------------------------------|
 E|--------------------------------------------------|
 e|--------------------------------------------------|
 B|--22-20-19-22-------------------------------------|
 G|--------------21b-19-19----19-19--21--------------|
 D|------------------------21------------------------|
 A|--------------------------------------------------|
 E|--------------------------------------------------|
 e|--------------------------------------------------|
 B|--------------------------------------------------|
 G|-----19-21-21b-21b-21b-21b-21brp19-21----19-------|
 D|--21----------------------------------21----------|
 A|--------------------------------------------------|
 E|--------------------------------------------------|
 e|--------------------------------------------------|
 B|--19-20-20-20-20p19-19---19-20-22-22b--22br-22----|
 G|--------------------------------------------------|
 D|--------------------------------------------------|
 A|--------------------------------------------------|
 E|--------------------------------------------------|
 e|--------------------------------------------------|
 B|--22-20-------------------------------------------|
 G|--------21brp19------21b--21--19---21brb----------|
 D|----------------21--------------------------------|
 A|--------------------------------------------------|
 E|--------------------------------------------------|
 e|--------------------------------------------------|
 B|--19-20-20-20p19----------------------------------|
 G|-----------------19-19-19-19-19-------------------|
 D|--------------------------------------------------|
 A|--------------------------------------------------|
 E|--------------------------------------------------|
 e|--------------------------------------------------|
 B|----------------------------15--15~~~-------------|
 G|--19p18-18/16-16/14-14-14b------------------------|
 D|--------------------------------------------------|
 A|--------------------------------------------------|
 E|--------------------------------------------------|

(Verse 3)
Every[G]time I hear an old guitar [D]and fiddle in harmony
It takes me [E]back to what I long for, a place I long to [A]be
So I [D]guess I'll take this [D7]old guitar
[G] I'll be up and on my [Gm]way
'Cause I got [D]Texas [D] [Fm]on [Em]my mind
Lord, I got [D]Texas [D] [Fm]on [Em]my mind
I got [D]Texas [D] [Fm]on [Em]my mind[A7]
Again [D]today
(END OF SONG)

Important: The song above is NOT stored on the Chordie server. The original song is hosted at www.azchords.com. Chordie works as a search engine and provides on-the-fly formatting. Chordie does not index songs against artists'/composers' will. To remove this song please click here.

Text color:
Chord color:
Chord grids: 
Font size:    
Page size: 

A A7 Bm D D7 E Em Fm G Gm
Rate #1 of 3 versions

Login - add to songbook

SHARE PAGE  




You need to log in to post comments