Guitar Tabs, Chords and Lyrics
Server problems seems to be fixed. Chordie has been experiencing problems with songs disappearing. These issues now seems to be fixed, but still verifying the fix. If you find anything strange, please email admin@chordie.com.


Ain't No Friend Of Mine  Mason Jennings

Hey, first tab here, noticed there wasnt a lot of this tab going around so
i figured it out myself, listen to the song (you'll gett'er)
AIN"T NO FRIEND OF MINE - MASON JENNINGS, off of BLOOD OF MAN
tune half step down
Intro/chorus:
 
 eb--------------------------------|
 Bb--------------------------------|
 Gb--------------------------------|
 Db---2-2h0-2-5-5p2p0--------------|
 Ab--------------------------------|
 Eb-0-----------------3-3-5p3-5-5--|

descending part:
 
 ----------------------------------------|
 ----------------------------------------|
 ----------------------------------------|
 ----------------------------------------|
 --12-12--10-10--7-7--5-5--2-2-----------|
 0------------------------------5-5--3-3-|

verse:
Power Chords!(palm mute)
before switching chords add one of these:
[E] [G] [A]  
 
 --- --- ---|
 --- --- ---|
 --- --- ---|

202 535 757|
202 535 757|
000 333 555|
[E]Blood in my mouth, blood in my mouth
Don't you [G]try to kiss me when there's [A]blood in my mouth
[E]Blood on my face, blood on my face
Don't you [G]take pictures when there's [A]blood on my face
[E]Blood on my hands, blood on my hands
G A E(two short palm mutes)
Don't you like it better when there's blood on my hands
Chorus:
You could be sweet, baby, you could be kind
But you ain't no friend, no, you ain't no friend of mine

Ain't no friend of mine, you ain't NO! friend of mine
You ain't NO! friend of mine

Verse 2:
[E]I walk the bodies into the yard[G] [A]
[E]You take the bombs home in your car[G] [A]
E G A E(two short palm mutes)
I'll wash the dishes, baby, you fold the pants
Chorus:
You could be sweet, baby, you could be kind
But you ain't no friend, no, you ain't no friend of mine

Ain't no friend of mine, you ain't NO! friend of mine
You ain't NO! friend of mine

Break: play while singing (ain't no friend) over and over
 
 ------------|
 ------------|
 ------------|
 ------------|
 --2--2------|

00-00-00-00-|
then, still singing:
 
 ----- ----- ----- ------- ----------|
 ----- ----- ----- ------- ----------|
 ----- ----- ----- ------- ----------|
 2-4-5 X5 4-5-7 X5 5-7-9 X5 9-10-12 X5 10-12-14--| X5
 ----- ----- ----- ------- ----------|
 ----- ----- ----- ------- ----------|
 ------------------------------------------------------|
 ------------------------------------------------------|
 ------------------------------------------------------|
 14-12-10-9--12-10-9-7--10-9-7-5--9-7-5-4-2--2-2-0-2-2-|
 ------------------------------------------------------|
 ------------------------------------------------------|

Verse again:
[E]Blood in your mouth, blood in your mouth
Don't you [G]talk to me when there's [A]blood in your mouth
[E]Blood on my face, blood on my face
Don't you [G]take pictures when there's [A]blood on my face
[E]Blood on our hands, blood on our hands
Don't we [G]look better with [A]blood on our hands
[E]You could be sweet, baby, you could be kind
G A(only one strum)
But you ain't no friend, no, you ain't no friend of mine

Ain't no friend of mine, you ain't NO! friend of mine
NO! you ain't no friend of mine

out:
palm mute like a boss on the E power chord, then add fifth fret on the B string, or open high E:
first: then: or:
- - 0
[-] [5] [-]  
[-] [-] [-]  
[2] [2] [2]  
[2]0 [2]0 [2]0

Important: The song above is NOT stored on the Chordie server. The original song is hosted at www.azchords.com. Chordie works as a search engine and provides on-the-fly formatting. Chordie does not index songs against artists'/composers' will. To remove this song please click here.

Text color:
Chord color:
Chord grids: 
Font size:    
Page size: 

A E G
Rate #2 of 2 versions

Login - add to songbook

SHARE PAGE  



You need to log in to post comments