Guitar Tabs, Chords and Lyrics
Server problems seems to be fixed. Chordie has been experiencing problems with songs disappearing. These issues now seems to be fixed, but still verifying the fix. If you find anything strange, please email admin@chordie.com.


Big Sur  Mason Jennings

<i></i>G Am D7 G
Just let the disc play
[G]This is a s[Am]ong to give you h[D7]ope[G]
[G]I wouldn't h[Am]ave it [D7]any other w[G]ay
[G]This is a s[Am]ong to give you h[D7]ope[G]
When you say h[G]oney I'm afraid to sleep at [Em]night, sleep at n[D7]ight
H[G]oney I'm afraid to sleep at [Em]night, sleep at n[D7]ight
Well,[G] I wish I [Am]had my[D7] arms aro[G]und you
[G]This is a [Am]song to give you h[D7]ope[G]
[G]Just [Am]let this[D7] thing surro[G]und you
[G]This is a [Am]song to give you h[D7]ope[G]
When you say, h[G]oney I'm afraid to sleep at [Em]night, sleep at n[D7]ight
[G]Honey I'm afraid to leave ton[Em]ight, well, leave ton[D7]ight
I said [G]go, [Am]hey, go [D7]on[G]
[G]Go, [Am]hey, go [D7]on[G]
I said [G]I, [Am]I love you t[D7]ruly[G]
So [G]go, [Am]hey, go [D7]on, [G] and,
[G]And get a j[Am]ump on the[D7] finer th[G]ings
[G]This is a [Am]song to give you h[D7]ope[G]
[G]You never [Am]know what the[D7] past will br[G]ing you
[G]This is a [Am]song to give you h[D7]ope[G]
When you say, [G]honey I'm afraid to sleep at[Em] night, sleep at [D7]night
[G]Honey I'm afraid to leave ton[Em]ight, well, leave ton[D7]ight
I said[G] go,[Am] hey, go[D7] on[G]
[G]Go, [Am]hey, go [D7]on[G]
I said [G]I, [Am]I love you t[D7]ruly[G]
So [G]go, [Am]hey, go [D7]on,[D7]
[D7]Forty miles south of Monterey, and the San Lucia Hills
The sun shine shone me to sleep and I dreamt I was alive
I sang myself a song it went, know what you know
Stay when you stay and go when you go
And I call it intuition
Flowers bloom and hummingbirds fly
Yes, I call it intuition
It gets me by
[D7](increasing speed)
Riff 1
 
 e-------------------------------------------------|
 B-------------------------------------------------|
 G--2h4p0-0------0-----0------2h4p0-0-----0-----0--|
 D------------2-----2------------------4-----5-----|
 A-------------------------------------------------|
 E-------------------------------------------------| (x3)

Riff 1.5
 
 e---------------------------------------------------|
 B---------------------------------------------------|
 G--2h4p0-0------0-----0------2h4p0-0-----0-----0--0-|
 D------------2-----2------------------4-----5-------|
 A---------------------------------------------------|
 E---------------------------------------------------| (x1)

Riff 2
 
 e----------------------------------|
 B----------------------------------|
 G----0---0---0---0---0---0---0---0-|
 D--5---5---5---5---5---5---5---5---|
 A----------------------------------|
 E----------------------------------|

Sailing on a silver ship, out to the open
Lonely and realizing that our friendship's been broken
And the funny thing to me is how quickly it slips away and
Leaves you thinking of the things that were never spoken, and
Riff 3
 
 e--------------------------|
 B--------------------------|
 G--------------------------|
 D----5---5---5---5---5---5-|
 A--3---3---3---3---3---3---|
 E--------------------------|

you know loving me is not e-
RIFF 1, RIFF 1.5
nough
RIFF 3
And I know future is as future
RIFF 1 (x3), RIFF 1.5
Does
RIFF 2
Sailing on a silver ship, out to the open
Lonely and realizing that our friendship's been broken
And the funny thing to me is how quickly it slips away and
Leaves you longing for the things that were never spoken, and
RIFF 3
you know loving me is not e-
RIFF 1, RIFF 1.5
nough
RIFF 3
And I know future is as future
RIFF 1 (x4)
Does
Riff 1.75
 
 e----------------------|
 B----------------------|
 G-2h4p0-0-----0-----0--|
 D----------4-----5-----|
 A----------------------|
 E----------------------| (x5)

Riff4
 
 e--------------------------|
 B--------------------------|
 G-----0---------0------0---|
 D---5---5-4---5---4--5---4-|
 A--------------------------|
 E--------------------------|

Outro on Riff 4

Important: The song above is NOT stored on the Chordie server. The original song is hosted at www.azchords.com. Chordie works as a search engine and provides on-the-fly formatting. Chordie does not index songs against artists'/composers' will. To remove this song please click here.

Text color:
Chord color:
Chord grids: 
Font size:    
Page size: 

Am D7 Em G
Rate #1 of 1 versions

Jango Player

Login - add to songbook

SHARE PAGE  




You need to log in to post comments