Guitar Tabs, Chords and Lyrics
Update 25:10. 13:00. Site is back up running again. Songbooks are recovered. Woring on getting search back up..


Crusher Destroyer  Mastodon

Mastodon
Crusher Destroyer
[A] [G] [C] [F] [A] [D]  
Intro 1: Verse 1: Verse 2: + Verse 1
 
 |------| |-------------| |---------------|
 |------| |-------------| |---------------|
 |------| |-------------| |---------------|
 |------| |-4-----4-----| |-4-4-----4-----|
 |-x\-0-| |-2-3---2-5-3-| |-2-2-3---2-5-3-|
 |-x\-0-| |---1-----3-1-| |-----1-----3-1-| 

Verse 1 x6
Chorus 1: Chorus 2: Verse 3:
 
 |-------------| |---0---0-| |-0-----|
 |-------------| |---0---0-| |-0-----|
 |-------------| |---------| |-2-----|
 |-3/7---3/10--| |-3---3---| |-3-----|
 |-2/6---2/9---| |-2---2---| |-3-----|
 |-1/5---1/8---| |-1---1---| |-1--\\-|

Chorus 1 + Chorus 2 x4
Verse 1 x4
Verse 3
Verse 1 x2
Verse 3
Verse 1 x4
Chorus 1 + Chorus 2 x4
Verse 4: + Verse 5 x2
 
 |------------------------------------------------|
 |------------------------------------------------|
 |------------------------------------------------|
 |-9tr-‚??13tr--10tr--7tr-10tr-9tr-7tr-----9tr-13tr-|
 |------------------------------------------------|
 |-7tr--11tr---8tr--5tr‚??-8tr-7tr-5tr-8tr-7tr-11tr-|

Verse 5:
 
 |-------------------------------|
 |-------------------------------|
 |-8-8-8-8-8--12--9--9--9--9--9--|
 |-------------------------------|
 |-------------------------------|
 |-------------------------------|

Bridge:
 
 |----------------------------------------|
 |----------------------------------------|
 |-12-12-12-12\11-11-9--15-15-15-15\14-14-|
 |----------------------------------------|
 |-10-10-10-10\-9--9-7--13-13-13-13\12-12-|
 |----------------------------------------|

Solo 1:
 
 |------7------7----7-7------7-7------7-7-7---|
 |----7------7------7-7------7-7------7-7-7---|
 |-9b-----9b-----9b-------9b-------9b---------|
 |--------------------------------------------|
 |--------------------------------------------|
 |--------------------------------------------|

Bridge
Solo 2:
 
 |------7-------7----------------------------|
 |----7----7-10------------------------------|
 |-9b--------------10p9p7----7-9--9b--7------|
 |-------------------------9------------9-9--|
 |-------------------------------------------|
 |-------------------------------------------|

Verse 1 x4
Chorus 1 + Chorus 2 x4

Important: The song above is NOT stored on the Chordie server. The original song is hosted at www.azchords.com. Chordie works as a search engine and provides on-the-fly formatting. Chordie does not index songs against artists'/composers' will. To remove this song please click here.

Text color:
Chord color:
Chord grids: 
Font size:    
Page size: 

A C D F G
Rate #1 of 2 versions

Login - add to songbook

SHARE PAGE  



You need to log in to post comments