Guitar Tabs, Chords and Lyrics
Update 25:10. 13:00. Site is back up running again. Songbooks are recovered. Woring on getting search back up..


Joseph Merrick  Mastodon

Band: Mastodon
I tabbed this using the ‚??slowmedown‚?? plugin on winamp, guitar pro and a lot of
patience. This is my own interpretation for one guitar. I figured since some
people don‚??t have guitar pro it‚??d be a good idea to export to a text file.
The legend is at the end.
My thanks to deathtribble and vanhalenforever for the basic tabs that got me
started.
^ ^
 
 |--3--| |----3---| |--3--| |--3--| 

Q Q Q Q E E E T T S E E Q E E E E E E
 
 D||-----------------|-------------5--L-4-L-L-----|--4----L--L--4-----------|
 A||-----------------|-------------5--L-5-L-L-----|--5----L--L--------------|
 F||-----------------|--6----L--L--6--L-----------|--6----L--L--------------|
 C||-----------------|----------------------------|--7----L--L--------------|
 G||-----------------|--4----L--L--------------0--|----------------0--L--2--|
 D||-----------------|----------------------------|-------------------------|

^ ^
 
 |--3--| |--3--| |--3--| |--3--| |--3--| 

Q E E E E E E Q Q Q E E E E E E E E E
 
 -------3--L--3--------3--|------------3\----|--0--L-----0--L--------------|
 -------4--L-----5--L-----|--4----L----4\----|--0--L-----------3-----------|
 -------4--L--------------|--5----L----------|--0--L--3--------------------|
 -------------------------|------------------|--0--L-----------------------|
 --3----------------------|------------------|--------------------1--L--3--|
 -------------------------|------------------|--3--L-----------------------|

^
 
 |--3--| |--3--| |--3--| |--3--| |--3--| |--3--| |--3--| |--3--| |--3--| 

[E] [E] [E] [E] [E] [E] [E] [E] [E] [E] [E] [E] [E] [E] [E] [E] [E] [E] [E] [E] [E] [E] [E] [E] [E] [E] [E]  
 
 -----------------0-----------|--0--L-----0--L--------------|-----------------0-----------|
 --------------------0--------|--0--L-----------3-----------|--------------------0--------|
 -----------3--L--------0-----|--0--L--3--------------------|-----------3-----------3-----|
 --------2-----------------2--|--0--L-----------------------|--------2-----2-----------5--|
 --4--L-----------------------|--------------------1--L--3--|--4--L-----------------------|
 -----------------------------|--3--L-----------------------|-----------------------------|

Q Q Q E E E E E E E E E E E E E E E E E E
 
 -----------------|--5s--3--------------|--2-----------------|-----------1--------|
 --5----7----8----|---------------2-----|-----2--------------|-----2--------2-----|
 -----------------|---------4--------4--|--------4--------3--|--------3--------3--|
 --2----4----5----|--7s--5-----5--------|--------------3-----|--3-----------------|
 -----------------|---------------------|-----------1--------|--------------------|
 -----------------|---------------------|--------------------|--------------------|

E E E E E E E E E E E E E E E E E E Q Q Q
 
 ---------------------|--2-----------------|-----------1--------|-----------------|
 ---------------2-----|-----2--------------|-----2--------2-----|-----------------|
 ---------4--------4--|--------4--------3--|--------3--------3--|--2----3----5----|
 --4s--5-----5--------|--------------3-----|--3-----------------|-----------------|
 ---------------------|-----------1--------|--------------------|--0----1----3----|
 ---------------------|--------------------|--------------------|-----------------|

^ ^ ^
 
 |--3--| |----3---| |--3--| |--3--| |--3--| |--3--| 

Q E E E T T S E E Q E E E E E E Q E E E E E E Q Q Q
 
 -------------5--L-4-L-L-----|--4----4--L--4-----------|-------3--L--L--L--L--3--|-----------------|
 -------------5--L-5-L-L-----|--5----5--L--------------|-------4--L--L--L--L-----|-----------------|
 --6----L--L--6--L-----------|--6----6--L--------------|-------0--L--L--L--L-----|-----------------|
 ----------------------------|--7----------------------|-------1--L--L--L--L-----|--1----1----0----|
 --4----L--L--------------0--|----------------0--L--2--|--3----------------------|-----------------|
 ----------------------------|-------------------------|-------------------------|-----------------|

^ ^
 
 |--3--| |--3--| |--3--| |--3--| |--3--| |--3--| |--3--| |--3--| |--3--| 

[E] [E] [E] [E] [E] [E] [E] [E] [E] [E] [E] [E] [E] [E] [E] [E] [E] [E] [E] [E] [E] [E] [E] [E] [E] [E] [E]  
 
 --0--L-----0--L--------------|-----------------0-----------|--0--L-----0--L--------------|
 --0--L-----------3-----------|--------------------0--------|--0--L-----------3-----------|
 --0--L--3--------------------|-----------3-----------3-----|--0--L--3--------------------|
 --0--L-----------------------|--------2-----5-----------2--|--0--L-----------------------|
 --------------------1--L--3--|--4--L-----------------------|--------------------1--L--3--|
 --3--L-----------------------|-----------------------------|--3--L-----------------------|
 |--3--| |--3--| |--3--| 

E E E E E E E E E Q Q Q E E E E E E E E E E E E
 
 -----------------0-----------|-----------------|--5s--3--------------|--2-----------------|
 --------------0-----0--------|--5----7----8----|---------------2-----|-----2--------------|
 -----------3-----------3-----|-----------------|---------4--------4--|--------4--------3--|
 --------2-----------------5--|--2----4----5----|--7s--5-----5--------|--------------3-----|
 --4--L-----------------------|-----------------|---------------------|-----------1--------|
 -----------------------------|-----------------|---------------------|--------------------|

[E] [E] [E] [E] [E] [E] [E] [E] [E] [E] [E] [E] [E] [E] [E] [E] [E] [E] [E] [E] [E] [E] [E] [E]  
 
 -----------1--------|---------------------|--2-----------------|-----------1--------|
 -----2--------2-----|---------------2-----|-----2--------------|-----2--------2-----|
 --------3--------3--|---------4--------4--|--------4--------3--|--------3--------3--|
 --3-----------------|--4s--5-----5--------|--------------3-----|--3-----------------|
 --------------------|---------------------|-----------1--------|--------------------|
 --------------------|---------------------|--------------------|--------------------|

^
|--3--|
Q Q Q Q Q Q Q Q E E E Q Q Q Q Q Q
 
 -----------------|------------4---------|--0----L----L--L--0--|--4--------------|--0----L----L----|
 -----------------|------------5----L----|--5----L----L--L--5--|--5----L----L----|--5----L----L----|
 --2----3----5----|------------6----L----|--6----L----L--L--6--|--6----L----L----|--6----L----L----|
 -----------------|------------6----L----|--7----L----L--L-----|--6----L----L----|--7----L----L----|
 --0----1----3----|--4---------4----L----|--7----L----L--L-----|--4----L----L----|--7----L----L----|
 -----------------|----------------------|---------------------|-----------------|-----------------|

^ ^ ^
 
 |--3--| |--3--| 

Q Q E E E Q Q Q Q Q Q Q Q E E E Q Q Q
 
 ---------------------|-----------------|-------3----L----|--3---------3--L-----|-------3----L----|
 ---------------------|-----------------|-------5----5----|--4----L----------5--|-------5----L----|
 ---------------------|-----------------|-------0----0----|--4----L-------------|-------0----0----|
 --4----L----4--L--6--|--7----7----L----|--2----2----2----|--2----L-------------|--2----2----L----|
 --4----L----4--L--6--|--7----7----L----|-----------------|---------------------|-----------------|
 --2----L----2--L--4--|--5----5----L----|-----------------|---------------------|-----------------|

^
 
 |--3--| |--3--| 

Q Q Q Q Q E E E Q Q E E E Q Q Q
 
 --3---------------|---------------------|---------------------|-------3----3----|
 --4---------4\----|---------------------|---------------------|-------3----3----|
 --4----4----------|---------------------|---------------------|-------4----4----|
 --2---------------|--4----L----4--L--6--|--7------------------|-------4---------|
 ------------------|--4----L----4--L--6--|--7----7-------------|--2--------------|
 ------------------|--2----L----2--L--4--|--5----5----5--L--5--|-----------------|
 |---3---| |--3--| |---3--| 

E E E Q E E E Q Q Q Q Q E E E Q Q Q
 
 -----------------------------|-----------------|-------------------------|-------2---------|
 -----------------------------|-----------------|--8g10----8----8--L--10--|-------3----3----|
 -----------------------------|-----------------|-------------------------|-------0----0----|
 --5g7--L--5g7--L----5--L--7--|------------9----|-------------------------|-------4----4----|
 -----------------------------|-------7---------|-------------------------|--2--------------|
 -----------------------------|--8--------------|-------------------------|-----------------|
 |--3--| |--3--| |---3--| 

Q Q E E E Q Q E E E Q E E E Q Q Q Q
 
 -----------------------|---------------------|-------------------------|---------------------|
 -----------------------|---------------------|--8g10----8--L--10--8----|-------6-----6-------|
 -----------------------|---------------------|-------------------------|-------8b----8pbr----|
 --5g7----5----5--L--7--|---------------------|-------------------------|--8------------------|
 -----------------------|---------------------|-------------------------|--8------------------|
 -----------------------|--8----L----L--L--8--|-------------------------|--6------------------|

^
 
 |---3--| |--3--| |--3--| |--3--| |--3--| |--3--| 

E E E E E E E E E Q Q Q Q Q Q E E E E E E E E E
 
 ---------6--------------------|-------3----L----|--L----L----L----|--L--L--L--L-----------------|
 --6---6--6--6-----------------|-------3----L----|--L----L----L----|--L--L--L--L-----------------|
 --8b-----------8--6--L--L--8--|-------3----L----|--L----L----L----|--L--L--L--L-----------------|
 ------------------------------|-------5----L----|--L----L----L----|--L--L--L--L-----------------|
 ------------------------------|-------5----L----|--L----L----L----|--L--L--L--L-----------4--6--|
 ------------------------------|--3----3----L----|--L----L----L----|--L--L--L--L--3--5--7--------|

^ ^ ^
 
 |--3--| |--3--| |--3--| |--3--| 

E E E Q Q Q Q Q Q E E E E E E Q Q E E E
 
 -------------------------|-------5----4----|-------------4-----------|-------3----L--L--3--|
 -------------------------|-------5----5----|--5----L--L--------------|-------4----L--L-----|
 -------------------------|--6----6---------|--6----L--L--------------|-------4----L--L-----|
 -----------4g6----4g6----|-------6---------|--7----L--L--------------|-------5----L--L-----|
 --4--6--7----------------|--4--------------|--0----L--L-----0--L--2--|--3------------------|
 -------------------------|-----------------|-------------------------|---------------------|

^
 
 |--3--| |--3--| |--3--| |--3--| |--3--| |--3--| 

Q Q Q E E E E E E E E E E E E E E E E E E
 
 ------------------|--0--L-----0--L--------------|-----------------0-----------|
 ------------4\----|--0--L-----------3-----------|--------------------0--------|
 ------------------|--0--L--3--------------------|--------3--L--3--------0-----|
 ------------------|--0--L-----------------------|-----2--------------------2--|
 --6----L----------|--------------------1--L--3--|--4--------------------------|
 ------------------|--3--L-----------------------|-----------------------------|

^
 
 |--3--| |--3--| |--3--| |--3--| |--3--| |--3--| 

E E E E E E E E E E E E E E E E E E Q Q Q E E E E E E
 
 --0--L-----0--L--------------|-----------------0-----------|-----------------|--5s--3--------------|
 --0--L-----------3-----------|--------------------0--------|--5----7----8----|---------------2-----|
 --0--L--3--------------------|-----------3-----------3-----|-----------------|---------4--------4--|
 --0--L-----------------------|--------2-----5-----------5--|--2----4----5----|--7s--5-----5--------|
 --------------------1--L--3--|--4--L-----------------------|-----------------|---------------------|
 --3--L-----------------------|-----------------------------|-----------------|---------------------|

[E] [E] [E] [E] [E] [E] [E] [E] [E] [E] [E] [E] [E] [E] [E] [E] [E] [E] [E] [E] [E] [E] [E] [E]  
 
 --2-----------------|-----------1--------|---------------------|--2-----------------|
 -----2--------------|-----2--------2-----|---------------2-----|-----2--------------|
 --------4--------3--|--------3--------3--|---------4--------4--|--------4--------3--|
 --------------3-----|--3-----------------|--4s--5-----5--------|--------------3-----|
 -----------1--------|--------------------|---------------------|-----------1--------|
 --------------------|--------------------|---------------------|--------------------|

^
|--3--|
E E E E E E Q Q Q Q Q Q Q Q E E E
 
 -----------1--------|-----------------|------------4---------|--0----L----L--L--0--|
 -----2--------2-----|-----------------|------------5----L----|--5----L----L--L--5--|
 --------3--------3--|--2----3----5----|------------6----L----|--6----L----L--L--6--|
 --3-----------------|-----------------|------------6----L----|--7----L----L--L-----|
 --------------------|--0----1----3----|--4---------4----L----|--7----L----L--L-----|
 --------------------|-----------------|----------------------|---------------------|

^
 
 |--3--| |--3--| 

Q Q Q Q Q Q Q Q E E E Q Q E E E Q Q Q
 
 --4--------------|--0----L----L----|---------------------|---------------------|-----------------|
 --5----L----L----|--5----L----L----|---------------------|---------------------|-------0----0----|
 --6----L----L----|--6----L----L----|---------------------|---------------------|-------0----0----|
 --6----L----L----|--7----L----L----|--4----L----L--L--6--|--7----L----L--L-----|-------2----L----|
 --4----L----L----|--7----L----L----|--4----L----L--L--6--|--7----L----L--L-----|-------2----L----|
 -----------------|-----------------|--2----L----L--L--4--|--5----L----L--L--5--|--0--------------|

^ ^ ^
 
 |--3--| |--3--| 

Q Q E E E Q Q Q Q Q Q Q Q E E E Q Q Q
 
 --3---------------3--|-----------------|------------------|---------------------|-----------------|
 --4----L----L--L-----|-------0----0----|--4----L----4\----|---------------------|-----------------|
 --0----L----L--L-----|-------0----0----|--0----L----0-----|---------------------|-----------------|
 --1----L----L--L-----|-------2----L----|--1----L----1\----|--4----L----L--L--6--|--7----L---------|
 --2------------------|-------2----L----|--2----L----2\----|--4----L----L--L--6--|--7----L----7----|
 ---------------------|--0--------------|------------------|--2----L----L--L--4--|--5----L----5----|
 |--3--| |---3--| 

Q Q Q Q Q E E E Q Q Q Q Q E E E
 
 -----------------|-----------------------|-----------------|-------------------------|
 -------3----L----|-----------------------|-----------------|--8g10----8----8--L--10--|
 -------4----L----|-----------------------|-----------------|-------------------------|
 --4----4----L----|--5g7----5----5--L--7--|------------9----|-------------------------|
 --2--------------|-----------------------|-------7---------|-------------------------|
 -----------------|-----------------------|--8--------------|-------------------------|
 |--3--| |---3--| 

Q Q Q Q Q E E E Q Q Q Q Q E E E
 
 -------2---------|-------------------------|-------------------|-----------------------------|
 -------3----3----|-------------------------|-------------------|--8g10----10g12----8--L--10--|
 -------0----0----|-------------------------|-------------12----|-----------------------------|
 -------4----4----|--5g7----7g9----5--L--7--|-------10----------|-----------------------------|
 --2--------------|-------------------------|-------------------|-----------------------------|
 -----------------|-------------------------|--8----------------|-----------------------------|

^
 
 |--3--| |---3--| |--3--| 

Q Q Q E E E E E E E E E Q Q Q Q Q Q
 
 -----------------|------------------6-----------|-------3----L----|--L----L----L----|
 ------------6----|--6--L-----6---L--6-----------|-------3----L----|--L----L----L----|
 -----------------|--------6--8b--L-----8--6-----|-------3----L----|--L----L----L----|
 -----------------|---------------------------8--|-------5----L----|--L----L----L----|
 --8----8---------|------------------------------|--5----5----L----|--L----L----L----|
 --6--------------|------------------------------|--3----3----L----|--L----L----L----|

^
 
 |--3--| |--3--| |--3--| |--3--| |--3--| |--3--| |--3--| |----3---| 

E E E E E E E E E E E E E E E E E E Q E E E T T S E E
 
 --L--L--L--------------------|---------------------------------|-------------5--L-4-L-L-----|
 --L--L--L--------------------|---------------------------------|-------------5--L-5-L-L-----|
 --L--L--L--------------------|---------------------------------|--6----L--L--6--L-----------|
 --L--L--L--------------------|-----------4g6--L--4--4g6--L--4--|----------------------------|
 --L--L--L-----------4--6-----|--4--6--7------------------------|--4----L--L--------------0--|
 --L--L--L--3--5--7--------7--|---------------------------------|----------------------------|

^ ^ ^
 
 |--3--| |--3--| |--3--| |--3--| |--3--| |--3--| 

Q E E E E E E Q Q E E E Q Q Q E E E E E E E E E
 
 --4----4--L--4-----------|-------3----3--L--3--|--3----3----3\----|--0--L-----0--L--------------|
 --5----5--L--5-----------|-------4----4--L--4--|--4----4----4\----|--0--L-----------3-----------|
 --6----6--L--------------|-------4----4--L-----|--5----5----5\----|--0--L--3--------------------|
 --7----7--L--------------|---------------------|------------------|--0--L-----------------------|
 ----------------0--L--2--|--3----5----5--L-----|--6----6----6\----|--------------------1--L--3--|
 -------------------------|---------------------|------------------|--3--L-----------------------|

^
 
 |--3--| |--3--| |--3--| |--3--| |--3--| |--3--| |--3--| |--3--| |--3--| 

[E] [E] [E] [E] [E] [E] [E] [E] [E] [E] [E] [E] [E] [E] [E] [E] [E] [E] [E] [E] [E] [E] [E] [E] [E] [E] [E]  
 
 -----------------0-----------|--0--L-----0--L--------------|-----------------0-----------|
 --------------------0--------|--0--L-----------3-----------|--------------------0--------|
 -----------3--L--------0-----|--0--L--3--------------------|-----------3-----------3-----|
 --------2-----------------2--|--0--L-----------------------|--------2-----2-----------5--|
 --4--L-----------------------|--------------------1--L--3--|--4--L-----------------------|
 -----------------------------|--3--L-----------------------|-----------------------------|

Q Q Q E E E E E E E E E E E E E E E E E E
 
 -----------------|--5s--3--------------|--2-----------------|-----------1--------|
 --5----7----8----|---------------2-----|-----2--------------|-----2--------2-----|
 -----------------|---------4--------4--|--------4--------3--|--------3--------3--|
 --2----4----5----|--7s--5-----5--------|--------------3-----|--3-----------------|
 -----------------|---------------------|-----------1--------|--------------------|
 -----------------|---------------------|--------------------|--------------------|

^
E E E E E E E E E E E E E E E E E E Q Q Q Q Q Q
 
 ---------------------|--2-----------------|-----------1--------|-----------------|------------5----|
 ---------------2-----|-----2--------------|-----2--------2-----|-----------------|------------5----|
 ---------4--------4--|--------4--------3--|--------3--------3--|--2----3----5----|--6----L----6----|
 --4s--5-----5--------|--------------3-----|--3-----------------|-----------------|-----------------|
 ---------------------|-----------1--------|--------------------|--0----1----3----|--4----L---------|
 ---------------------|--------------------|--------------------|-----------------|-----------------|

^
Q Q Q Q Q Q
 
 --4---------4----|--L----L----L----||
 --5---------5----|--L----L----L----||
 ------------6----|--L----L----L----||
 ------------7----|--L----L----L----||
 -------0---------|-----------------||
 -----------------|-----------------||

Duration Legend
 
 ---------------

W - whole
H - half
Q - quarter
E - 8th
S - 16th
T - 32nd
X - 64th
. - note dotted
|-n-| - n-tuplets
Tablature Legend
 
 ----------------

L - tied note
x - dead note
g - grace note
(n) - ghost note
> - accentuded note
NH - natural harmonic
AH - artificial harmonic
TH - tapped harmonic
SH - semi harmonic
PH - pitch harmonic
h - hammer on
p - pull off
b - bend
br - bendRelease
pb - preBend
pbr - preBendRelease
brb - bendReleaseBend
\n/ - tremolo bar dip
\n - tremolo bar dive
-/n - tremolo bar Release up
/n\ - tremolo bar inverted dip
/n - tremolo bar return
-\n - tremolo bar Release down
S - shift slide
s - legato slide
/ - slide into from below or out of upwards
\ - slide into from above or out of downwards
~ - vibrato
W - wide vibrato
tr - trill
TP - tremolo picking
T - tapping
S - slap
P - pop
< - fade in
^ - brush up
v - brush down

Important: The song above is NOT stored on the Chordie server. The original song is hosted at www.azchords.com. Chordie works as a search engine and provides on-the-fly formatting. Chordie does not index songs against artists'/composers' will. To remove this song please click here.

Text color:
Chord color:
Chord grids: 
Font size:    
Page size: 

E
Rate #1 of 1 versions

Jango Player

Login - add to songbook

SHARE PAGE  




You need to log in to post comments