Guitar Tabs, Chords and Lyrics
Major upgrade!! After one year development the new version of Chordie is now online! Please give feedback.


Bent  Matchbox Twenty

Bent
Matchbox Twenty
F#m is played over this riff
*begin note bent up half step (should sound like 10th fret, then go
down to 9th)
 
 e----------------------------------------------------------------------
 b----------------------------------------------------------------------
 g----------------------------------------------------------------------
 d--9---10^9---10^9--7--6--------------6-7-9---10^9---10^9---7--6-------
 a------------------------7---9----7-9-----------------------------9----
 e--------------------------9-------------------------------------------

[F#m] If I fall along the [Bm]way
[E] Pick me up and dust me [F#m]off
and if I get too tired to [Bm]make it
[E] be my breath so I can [F#m]walk
If I need some other [Bm]love
[E] give me more than I can [F#m]stand
and when my smile gets old and [Bm]faded
[E] wait around I'll smile [A]again
shouldn't [G#m]be so compli[F#m]cated
just hold me and [Bm]then
just [E]hold me again
[A] can you help me I'm [E]bent
I'm so scared that I'll [D]never
get put back [E]together
you're breaking me [A]in
and this is how we will [F#m]end
with you and me [D] bent
 
 d----------
 a----------
 e----5--4--

[F#m] If I couldn't sleep could [Bm]you sleep
[E] could you paint me better [F#m]off
could you sympathize with [Bm]my needs
[E] I know you think I need a [A]lot
I started [G#m]out clean but I'm [F#m]jaded
just phoning it [Bm]in
[E] just breaking the skin
[A] can you help me I'm [E]bent
I'm so scared that I'll [D]never
get put back [E]together
you're breaking me [A]in
and this is how we will [F#m]end
with you and me [D] bent
[F#m] [D]  
[F#m] start bending [D]me
It's never [F#m]enough
I feel [D]all your pieces
[F#m] start bending [D]me
Keep bending me [Bm]until I'm comp[E]letely broken in
F#m is played over this riff
*begin note bent up half step (should sound like 10th fret, then go
down to 9th)
 
 e----------------------------------------------------------------------
 b----------------------------------------------------------------------
 g----------------------------------------------------------------------
 d--9---10^9---10^9--7--6--------------6-7-9---10^9---10^9---7--6-------
 a------------------------7---9----7-9----------------------------------
 e--------------------------9-------------------------------------------

[A] shouldn't [G#m]be so compli[F#m]cated
just touch me and [Bm]then
[E] just touch me again
[A] can you help me I'm [E]bent
I'm so scared that I'll [D]never
get put back [E]together
you're breaking me [A]in
and this is how we will [F#m]end
with you and me [D]bending
with[E]out understanding, hell I'll go there again
[A] can you help me I'm [E]bent
I'm so scared that I'll [D]never
get put back [E]together
you're breaking me [A]in
and this is how we will [F#m]end
with you and me [D] bent

Important: The song above is NOT stored on the Chordie server. The original song is hosted at www.azchords.com. Chordie works as a search engine and provides on-the-fly formatting. Chordie does not index songs against artists'/composers' will. To remove this song please click here.

Text color:
Chord color:
Chord grids: 
Font size:    
Page size: 

A Bm D E F#m G#m
Rate #1 of 12 versions

Jango Player

Login - add to songbook

SHARE PAGE  




You need to log in to post comments