Guitar Tabs, Chords and Lyrics
Major upgrade!! After one year development the new version of Chordie is now online! Please give feedback.


Rest Stop  Matchbox Twenty

SongTitle: Rest Stop
Intro Em, G, D, Em
Verse
[Em] just 3 miles, from the re[G]st stop
[D] And she slams on t[Em]he breaks
[Em]She said I tried to be but I[G]‚??m not
[D] And could you please collect your thin[Em]gs
Pre-chorus
Well I don‚??t [D]wanna be cold, I don‚??t wanna be cruel
But I g[Em]otta find more than what‚??s happened with you
So if you‚??d [C]- open up the door
CHORUS
She said -[G] while you were sleeping
I was l[D]istening to the radio and wondering what you're dreaming
[Em]when it came to m[D]ind that I didn‚??t[C] care
it came to mind that I didn‚??t care
So I thought - [G]hell if it‚??s over
I had b[D]etter end it quick or I could lose my nerve
Are you [Em]listening[D] - Can you h[A]ear me
Have you for[C]gotten
Verse
[Em]Just 3 miles from the re[G]st stop
[D] And my mouth‚??s too dry to[Em] rage
[Em]The light was shining from the r[G]adio
[D] I could barely see her [Em]face
Pre-chorus
But she k[D]new all the words that I never had said
She knew the cr[Em]umbled up promise of this
broken down man - As I [C]opened up my door
(chorus)
'SOLO' Chords are: C, D, C, D (x2)
(play both guitars at same time)
Guitar 1 distorsion
 
 e|--------------------------------------------------------------|
 B|--------------------------------------------------------------|
 G|----------------7----------------------/9--7------------------|
 D|--5--7----5--7-------------------5--7-------------------------|
 A|--------------------------------------------------------------|
 E|--------------------------------------------------------------|

Guitar 2 clean ('behind' guitar 1)
 
 e|--------------------------------------------------------------|
 B|--------------------------------------------------------------|
 G|--------------------------------------------------------------|
 D|--------------------------------------------------------------|
 A|-----------------10--12--14--12---------------10--12--14--12--|
 E|--------------------------------------------------------------|

Guitar 1
 
 e|----------------------------10--10--10--/15-------------|
 B|--------------------------------------------------------|
 G|--------/9--7----------------7---7---7--/12-------------|
 D|--5--7--------------------------------------------------|
 A|--------------------------------------------------------|
 E|--------------------------------------------------------|

Guitar 2
 
 e|--------------------------------------------------------|
 B|--------------------------------------------------------|
 G|--------------------------------------------------------|
 D|---------------10--9--7---------------------------------|
 A|--------------------------------------------------------|
 E|--------------------------------------------------------|

(chorus x2)
hold last 'A' chord to finish it off at the end of
second chorus.
E-mial me with any suggestions, comments or corrections,
Ryan Short

Important: The song above is NOT stored on the Chordie server. The original song is hosted at www.azchords.com. Chordie works as a search engine and provides on-the-fly formatting. Chordie does not index songs against artists'/composers' will. To remove this song please click here.

Text color:
Chord color:
Chord grids: 
Font size:    
Page size: 

A C D Em G
Rate #1 of 12 versions

Jango Player

Login - add to songbook

SHARE PAGE  



You need to log in to post comments