Guitar Tabs, Chords and Lyrics
Update 25:10. 13:00. Site is back up running again. Songbooks are recovered. Woring on getting search back up..


Continue Dreaming  Matt Nathanson

 
 ----------------------------------------------------------------------------

Continue Dreaming ‚?? Matt Nathanson
 
 ----------------------------------------------------------------------------

Tuning: Standard Tuning, half-step down (Eb Ab Db Gb Bb eb), but you can
easily just play it in standard tuning. Nathanson plays a 12-string
in the recording, and it sounds like there are two guitars, but the
song sounds fine with just one 6-string. Use a mixture of picking
and strumming throughout.
Intro and First Verse:
[Asus2] [Dsus2] [E]  
 
 e|-------0-------0-|-------0-------0-|-------0-------0-|-0-----0-0-|
 B|-----------0-----|-----3-----3-----|-----------0-----|-0-----0-0-|
 G|-----2-------2---|---2---------2---|-----1-------1---|-1h2---2-1-|(repeat)
 D|---2-------------|-0---------------|---2-------------|-2-----2-2-|
 A|-0---------------|-----------------|-----------------|-2-----2-2-|
 E|-----------------|-----------------|-0---------------|-0---------|

Chorus: (strumming, so I won‚??t show the rhythm)
[Dsus2] [E] [Asus2]  
 
 e|-0-------|-0-------|-0-------|-0---0---0--|
 B|-3-------|-0-------|-0-------|-0---0---0--|
 G|-2-------|-1-------|-6-------|-6---7---9--| (repeat, third time end on E)
 D|-0-------|-2-------|-7-------|-7---9---11-|
 A|-0-------|-2-------|-0-------|-0---0---0--|
 E|---------|-0-------|---------|------------| 

Tag: (between Chorus and Verses)
[Asus2] [Dsus2] [E]  
 
 e|-------0-------0-|-------0-------0-|-------0-------0-|-0-----0-0-|
 B|-----------0-----|---0-------0-----|-----3-----3-----|-0-----0-0-|
 G|-----2-------2---|-----2-------2---|---2---------2---|-1h2---2-1-|
 D|---2-------------|-----------------|-0---------------|-2-----2-2-|
 A|-0---------------|-----------------|-----------------|-2-----2-2-|
 E|-----------------|-----------------|-----------------|-0---------|

[Asus2] [Dsus2] [E]  
 
 e|-0------|-0---0---0--|-0------|-0------|
 B|-0------|-0---0---0--|-3------|-0------|
 G|-2------|-6---7---9--|-2------|-1------|
 D|-2------|-7---9---11-|-0------|-2------|
 A|-0------|-0---0---0--|-0------|-2------|
 E|--------|------------|--------|-0------|

Verses 2&3:
[Asus2] [Dsus2] [E]  
 
 e|-------0-------0-|-------0-------0-|-------0-------0-|-------0-------0-|
 B|-----------0-----|---0-------0-----|-----3-----3-----|-----------0-----|
 G|-----2-------2---|-----2-------2---|---2---------2---|-----1-------1---|
 D|---2-------------|-----------------|-0---------------|---2-------------|
 A|-0---------------|-----------------|-----------------|-----------------|
 E|-----------------|-----------------|-----------------|-0---------------|

[Asus2] [Dsus2] [E]  
 
 e|-------0-------0-|-------0-------0-|-------0-------0-|-0------|
 B|-----------0-----|---0-------0-----|-----3-----3-----|-0------|
 G|-----2-------2---|-----2-------2---|---2---------2---|-1------|
 D|---2-------------|-----------------|-0---------------|-2------|
 A|-0---------------|-----------------|-----------------|-2------|
 E|-----------------|-----------------|-----------------|-0------|


Important: The song above is NOT stored on the Chordie server. The original song is hosted at www.azchords.com. Chordie works as a search engine and provides on-the-fly formatting. Chordie does not index songs against artists'/composers' will. To remove this song please click here.

Text color:
Chord color:
Chord grids: 
Font size:    
Page size: 

Asus2 Dsus2 E
Rate #1 of 1 versions

Login - add to songbook

SHARE PAGE  




You need to log in to post comments