Guitar Tabs, Chords and Lyrics
Server problems seems to be fixed. Chordie has been experiencing problems with songs disappearing. These issues now seems to be fixed, but still verifying the fix. If you find anything strange, please email admin@chordie.com.


A Grand Declaration of War  Mayhem

Mayhem - Grand Declaration of War
Tablature Legend
 
 ----------------

h - hammer-on
p - pull-off
b - bend
pb - pre-bend
r - bend release (if no number after the r, then release immediately)
/\ - slide into or out of (from/to "nowhere")
s - legato slide
S - shift slide
- natural harmonic
(n) - artificial harmonic
n(n) - tapped harmonic
~ - vibrato
tr - trill
T - tap
TP - trem. picking
PM - palm muting
\n/ - tremolo bar dip; n = amount to dip
\n - tremolo bar down
n/ - tremolo bar up
/n\ - tremolo bar inverted dip
= - hold bend; also acts as connecting device for hammers/pulls
<> - volume swell (louder/softer)
x - on rhythm slash represents muted slash
o - on rhythm slash represents single note slash
Gtr I (Eb Ab Db Gb Bb Eb) - 'Untitled'
Gtr II (Eb Ab Db Gb Bb Eb) - 'Untitled'
E=200
8/8 12/8
Gtr I
S S S S S S S S S S S S S S S S S S S
 
 |--------------------|-------------------------|
 |------------9-------|-------6-----------6-----|
 |--9------12---12----|-----9---9-------9---9---|
 |------10---------10-|---7-------7---7-------7-|
 |----0---------------|-0-----------0-----------|
 |--------------------|-------------------------|

S S S S S S S S S S S S
 
 |----------------------------------|
 |-------6-----5--------------------|
 |-----9---9-----8-----(8)----------|
 |---7-------7-----(6)-----(6)------|
 |-0---------------------------(0)--|
 |----------------------------------|

S S S S S S S S S S S S S S S S S S S S S S S S
 
 |-------------------------|-----------------------------|
 |-------6-----------6-----|-------6-------------9-------|
 |-----9---9-------9---9---|-----9---9--------12---12----|
 |---7-------7---7-------7-|---7-------7---10---------10-|
 |-0-----------0-----------|-0-----------0---------------|
 |-------------------------|-----------------------------|

S S S S S S S S S S S S
 
 |--------------------------|
 |-------6-----------6------|
 |-----9---9-------9---9----|
 |---7-------7---7-------7--|
 |-0-----------0------------|
 |--------------------------|

S S S S S S S S S S S S S S S S S S S S S S S S
 
 |-------------------------|--------------------------|
 |-------6-----5-----------|--------6-----------6-----|
 |-----9---9-----8---8-----|------9---9-------9---9---|
 |---7-------7-----6---6---|----7-------7---7-------7-|
 |-0---------------------0-|-0------------0-----------|
 |-------------------------|--------------------------|

|
| Gtr II
| H.
 
 |-------------------------|--------------------------|
 |-------------------------|--------------------------|
 |-------------------------|--------------------------|
 |-------------------------|-7------------------------|
 |-------------------------|-7------------------------|
 |-------------------------|-5------------------------|

S S S S S S S S S S S S
 
 |--------------------------------|
 |---------6-------------9--------|
 |-------9---9--------12---12-----|
 |-----7-------7---10---------10--|
 |--0------------0----------------|
 |--------------------------------|

|
| +H.
 
 |--------------------------------|
 |--------------------------------|
 |--------------------------------|
 |-(7)----------------------------|
 |-(7)----------------------------|
 |-(5)----------------------------|

S S S S S S S S S S S S
 
 |---------------------------|
 |---------6-----------6-----|
 |-------9---9-------9---9---|
 |-----7-------7---7-------7-|
 |--0------------0-----------|
 |---------------------------|

|
| +H
 
 |---------------------------|
 |---------------------------|
 |---------------------------|
 |-(7)-----------------------|
 |-(7)-----------------------|
 |-(5)-----------------------|

S S S S S S S S S S S S S S S S S S S S S S S S
 
 |---------------------------|---------------------------|
 |---------6-----5-----------|--------6-----------6------|
 |-------9---9-----8---8-----|------9---9-------9---9----|
 |-----7-------7-----6---6---|----7-------7---7-------7--|
 |--0----------------------0-|-0------------0------------|
 |---------------------------|---------------------------|

|
| +H. H.
 
 |---------------------------|---------------------------|
 |---------------------------|---------------------------|
 |---------------------------|---------------------------|
 |-(7)-----------------------|-7-------------------------|
 |-(7)-----------------------|-7-------------------------|
 |-(5)-----------------------|-5-------------------------|

S S S S S S S S S S S S
 
 |-------------------------------|
 |---------6-------------9-------|
 |-------9---9--------12---12----|
 |-----7-------7---10---------10-|
 |--0------------0---------------|
 |-------------------------------|

|
| +H.
 
 |-------------------------------|
 |-------------------------------|
 |-------------------------------|
 |-(7)---------------------------|
 |-(7)---------------------------|
 |-(5)---------------------------|

|-3-|
S S S S S S S S S S S S S S S S S S S S S S E S
 
 |-------------------------|-----------------------------|
 |-------6-----------6-----|---------6-------------------|
 |-----9---9-------9---9---|-------9----9-9-8-8-8-8-8----|
 |---7-------7---7-------7-|-----7--------7-6-6-6-6-6----|
 |-0-----------0-----------|--0--------------------------|
 |-------------------------|-----------------------------|

|
| |-3-|
| +E. E. S S S S E S
 
 |-------------------------|-----------------------------|
 |-------------------------|-----------------------------|
 |-------------------------|-----------------------------|
 |-------------------------|-(7)------------6-6-6-6-6----|
 |-------------------------|-(7)-----7------6-6-6-6-6----|
 |-------------------------|-(5)------------4-4-4-4-4----|

H S S S S S S S S S S S S S S S S S S S S S S S S
 
 |------|---------------------------------|---------------------------------------------|
 |------|---------6---------------6-------|---------6---------------------9-------------|
 |------|-------9-----9---------9-----9---|-------9-----9------------12-------12--------|
 |------|-----7---------7-----7---------7-|-----7---------7-----10-----------------10---|
 |------|-0---------------0---------------|-0---------------0---------------------------|
 |------|---------------------------------|---------------------------------------------|

|
| T T E T T E T T E T T E T T E T T E T T T T T T T T T T T T
 
 |------|---------------------------------|---------------------------------------------|
 |------|---------------------------------|---------------------------------------------|
 |------|---------------------------------|---------------------------------------------|
 |------|---------------------------------|---------------------------------------------|
 |------|-7-7-----7-7-----7-7-----7-7-----|-7-7-----7-7-----6-6--6-6--6-6-6-6--6-6--6-6-|
 |------|-5-5-----5-5-----5-5-----5-5-----|-5-5-----5-5-----4-4--4-4--4-4-4-4--4-4--4-4-|

S S S S S S S S S S S S
 
 |-------------------------------------------|
 |-------------6-------------------6---------|
 |---------9-------9-----------9-------9-----|
 |-----7-------------7-----7-------------7---|
 |-0-------------------0---------------------|
 |-------------------------------------------|

|
 
 | |--3--| |--3--| |--3--| |--3--|

| S S S S S S S S S S S S S S S S
 
 |-------------------------------------------|
 |-------------------------------------------|
 |-------------------------------------------|
 |-------------------------------------------|
 |-7-7---7-7-7---7-7---7-7---7-7-7---7-7-----|
 |-5-5---5-5-5---5-5---5-5---5-5-5---5-5-----|

S S S S S S S S S S S S S S S S S S S S S S S S
 
 |-----------------------------------------|---------------------------------------------|
 |-------------6-------5-------------------|-------------6-------------------6-----------|
 |---------9-------9-------8-------8-------|---------9-------9-----------9-------9-------|
 |-----7-------------7---------6-------6---|-----7-------------7-----7---------------7---|
 |-0-------------------------------------0-|-0-------------------0-----------------------|
 |-----------------------------------------|---------------------------------------------|

|
 
 | |--3--| |--3--| |--3--| |--3--| |--3--| |--3--| |--3--| |--3--| |--3--|

| S S S S S S S S S S S S S S S S S S S S S S S S S S S S S S S S S
 
 |-----------------------------------------|---------------------------------------------|
 |-----------------------------------------|---------------------------------------------|
 |-----------------------------------------|---------------------------------------------|
 |-----------------------------------------|---------------------------------------------|
 |-7-7---7-7-7---7-7---6-6---6-6-6---6-6---|-7-7---7-7-7---7-7---7-7---7-7-7---7-7-7---7-|
 |-5-5---5-5-5---5-5---4-4---4-4-4---4-4---|-5-5---5-5-5---5-5---5-5---5-5-5---5-5-5---5-|

S S S S S S S S S S S S
 
 |------------------------------------------------------|
 |-------------6-------------------------9--------------|
 |---------9-------9----------------12-------12---------|
 |-----7---------------7-------10---------------10------|
 |-0-----------------------0----------------------------|
 |------------------------------------------------------|

|
 
 | |--3--| |--3--| |--3--| |--3---| |--3--| |-3--|

| S S S S S S S S S S S S S S S S S S
 
 |------------------------------------------------------|
 |------------------------------------------------------|
 |------------------------------------------------------|
 |------------------------------------------------------|
 |-7-7---7-7-7---7-7-7---7-6-6----6--6-6---6--6--6-6----|
 |-5-5---5-5-5---5-5-5---5-4-4----4--4-4---4--4--4-4----|

S S S S S S S S S S S S
 
 |-------------------------------------------------|
 |-------------6-----------------------6-----------|
 |---------9-------9---------------9-------9-------|
 |-----7---------------7-------7---------------7---|
 |-0-----------------------0-----------------------|
 |-------------------------------------------------|

|
 
 | |--3--| |--3--| |--3--| |--3--| |--3--| |--3--|

| S S S S S S S S S S S S S S S S S S
 
 |-------------------------------------------------|
 |-------------------------------------------------|
 |-------------------------------------------------|
 |-------------------------------------------------|
 |-7-7---7-7-7---7-7-7---7-7-7---7-7-7---7-7-7---7-|
 |-5-5---5-5-5---5-5-5---5-5-5---5-5-5---5-5-5---5-|

S S S S S S S S S S E E H Q
 
 |-----------------------------------------------|---------------|
 |-------------6---------------------------------|---------------|
 |---------9-------9---9---8---8---8---8---8-----|---------------|
 |-----7---------------7---6---6---6---6---6-----|---------------|
 |-0---------------------------------------------|---------------|
 |-----------------------------------------------|---------------|

|
 
 | |--3--| |--3--| |--3--| |--3--| |--3--|

| S S S S S S S S S S S T T T T T T E H Q
 
 |-----------------------------------------------|---------------|
 |-----------------------------------------------|---------------|
 |-----------------------------------------------|---------------|
 |-----------------------------------------------|---------------|
 |-7-7---7-7-7---7-7-7---7-6-6---6-6-6---6-6-6---|---------------|
 |-5-5---5-5-5---5-5-5---5-4-4---4-4-4---4-4-4---|---------------|

S S S S S S S S S S S S S S S S S S S S S S S S
 
 |--------------------------|-----------------------------|
 |--------6-----------------|-----------------------------|
 |------9-------------------|---------------9-9-10-10-9-9-|
 |----7-----7-7-7-7-7-7-7-7-|--7--7-7-7-7-7---------------|
 |-0------------------------|-----------------------------|
 |--------------------------|-----------------------------|

|
| H. +H.
 
 |--------------------------|-----------------------------|
 |--------------------------|-----------------------------|
 |--------------------------|-----------------------------|
 |--------------------------|-----------------------------|
 |-7------------------------|-(7)-------------------------|
 |-5------------------------|-(5)-------------------------|

S S S S S S S S S S S S
 
 |---------------------------|
 |-8-8-8-8-8-8-8-8--8-8-8-8--|
 |---------------------------|
 |-------------8-8--8-8-8-8--|
 |---------------------------|
 |---------------------------|

|
| |-3-|
| E S S S S Q.
 
 |---------------------------|
 |---------------------------|
 |---------------------------|
 |-8---8-8-8-8---------------|
 |-6---6-6-6-6---------------|
 |---------------------------|

S S S S S S S S S S S S S S S S S S S S S S S S
 
 |-------------------------|--------------------------|
 |-------------------------|--------6-----------------|
 |-------------------------|------9-------------------|
 |-8-8-8-8-8-8-----8-8-----|----7-----7-7-7-7-7-7-7-7-|
 |-------------6-7-----1-1-|-0------------------------|
 |-------------------------|--------------------------|

|
| H.
 
 |-------------------------|--------------------------|
 |-------------------------|--------------------------|
 |-------------------------|--------------------------|
 |-------------------------|--------------------------|
 |-------------------------|-7------------------------|
 |-------------------------|-5------------------------|

S S S S S S S S S S S S
 
 |------------------------------|
 |------------------------------|
 |---------------9-9-10-10-9-9--|
 |--7--7-7-7-7-7----------------|
 |------------------------------|
 |------------------------------|

|
| +H.
 
 |------------------------------|
 |------------------------------|
 |------------------------------|
 |------------------------------|
 |-(7)--------------------------|
 |-(5)--------------------------|

S S S S S S S S S S S S S S S S S S S S S S S S
 
 |--------------------------|-------------------------|
 |-8--8-8-8-8-8-8-8-8-8-8-8-|-------------------------|
 |--------------------------|-------------------------|
 |--------------8-8-8-8-8-8-|-8-8-8-8-8-8-----8-8-----|
 |--------------------------|-------------6-7-----1-1-|
 |--------------------------|-------------------------|

|
| H. S S Q Q
 
 |--------------------------|-------------------------|
 |--------------------------|-------------------------|
 |--------------------------|-------------------------|
 |-8------------------------|-8-8---------8-----------|
 |-6------------------------|-6-6---------6-----------|
 |--------------------------|-------------------------|

S S S S S S S S S S S S
 
 |---------------------------|
 |--------6------------------|
 |------9--------------------|
 |----7-----7-7-7-7-7-7-7-7--|
 |-0-------------------------|
 |---------------------------|

|
| H.
 
 |---------------------------|
 |---------------------------|
 |---------------------------|
 |---------------------------|
 |-7-------------------------|
 |-5-------------------------|

S S S S S S S S S S S S
 
 |-----------------------------|
 |-----------------------------|
 |---------------9-9-10-10-9-9-|
 |--7--7-7-7-7-7---------------|
 |-----------------------------|
 |-----------------------------|

|
| +H.
 
 |-----------------------------|
 |-----------------------------|
 |-----------------------------|
 |-----------------------------|
 |-(7)-------------------------|
 |-(5)-------------------------|

S S S S S S S S S S S S S S S S S S S S S S S S
 
 |--------------------------|------------------------------|
 |-8--8-8-8-8-8-8-8-8-8-8-8-|------------------------------|
 |--------------------------|------------------------------|
 |--------------8-8-8-8-8-8-|--8--8-8-8--8--8-----8-8------|
 |--------------------------|-----------------6-7-----1-1--|
 |--------------------------|------------------------------|

|
| H. +Q. +Q E
 
 |--------------------------|------------------------------|
 |--------------------------|------------------------------|
 |--------------------------|------------------------------|
 |-8------------------------|-(8)-------(8)----------------|
 |-6------------------------|-(6)-------(6)----------------|
 |--------------------------|------------------------------|

S S S S S S S S S S S S S S S S S S S S S S S S
 
 |--------------------------|-----------------------------|
 |--------6-----------------|-----------------------------|
 |------9-------------------|---------------9-9-10-10-9-9-|
 |----7-----7-7-7-7-7-7-7-7-|--7--7-7-7-7-7---------------|
 |-0------------------------|-----------------------------|
 |--------------------------|-----------------------------|

|
| H. +H.
 
 |--------------------------|-----------------------------|
 |--------------------------|-----------------------------|
 |--------------------------|-----------------------------|
 |--------------------------|-----------------------------|
 |-7------------------------|-(7)-------------------------|
 |-5------------------------|-(5)-------------------------|

S S S S S S S S S S S S
 
 |-------------------------------|
 |-8-8-8-8-8-8-8-8--8--8-8--8----|
 |-------------------------------|
 |-------------8-8--8--8-8--8----|
 |-------------------------------|
 |-------------------------------|

|
| E S S S S +Q +S..
 
 |-------------------------------|
 |-------------------------------|
 |-------------------------------|
 |-8---8-8-8-8-----(8)-----(8)---|
 |-6---6-6-6-6-----(6)-----(6)---|
 |-------------------------------|

S S S S S S S S S S S S S S S S S S S S S S S S
 
 |-------------------------|-----------------------------|
 |-------------------------|---------6-------------------|
 |-------------------------|-----9-----------------------|
 |-8-8-8-8-8-8-----8-8-----|---7---------7-7-7-7-7-7-7-7-|
 |-------------6-7-----1-1-|-0---------------------------|
 |-------------------------|-----------------------------|

|
| |--3--|
| E E Q Q E S S S E E E E
 
 |-------------------------|-----------------------------|
 |-------------------------|-----------------------------|
 |-------------------------|-----------------------------|
 |-8---8-----------8-------|-----------------------------|
 |-6---6-----------6-------|-7---7-7---7-7---7---7-------|
 |-------------------------|-5---5-5---5-5---5---5-------|

[E]  
S S S S S S S S S S S S
 
 |---------------------------------|
 |---------------------------------|
 |-----------------9-9-10-10-9-9---|
 |-7-7-7---7---7-7-----------------|
 |---------------------------------|
 |---------------------------------|

|
| |--3--|
| E S S S E E E E
 
 |---------------------------------|
 |---------------------------------|
 |---------------------------------|
 |---------------------------------|
 |-7---7-7---7-7---7----7----------|
 |-5---5-5---5-5---5----5----------|

[E]  
S S S S S S S S S S S S
 
 |-----------------------------|
 |-8-8-8---8---8-8-8-8-8-8-8-8-|
 |-----------------------------|
 |-----------------8-8-8-8-8-8-|
 |-----------------------------|
 |-----------------------------|

|
| |--3--|
| E S S S E E E E
 
 |-----------------------------|
 |-----------------------------|
 |-----------------------------|
 |-8---8-8---8-8---8-------8---|
 |-6---6-6---6-6---6-------6---|
 |-----------------------------|

[E]  
S S S S S S S S S S S S S S S S S S S S S S S S
 
 |-----------------------------|-----------------------------|
 |-----------------------------|---------6-------------------|
 |-----------------------------|-----9-----------------------|
 |-8-8-8---8---8-8-----8-8-----|---7---------7-7-7-7-7-7-7-7-|
 |-----------------6-7-----1-1-|-0---------------------------|
 |-----------------------------|-----------------------------|

|
 
 | |--3--| |--3--|

| E S S S E E E E E S S S E E E E
 
 |-----------------------------|-----------------------------|
 |-----------------------------|-----------------------------|
 |-----------------------------|-----------------------------|
 |-8---8-8---8-8---8-------8---|-----------------------------|
 |-6---6-6---6-6---6-------6---|-7---7-7---7-7---7-------7---|
 |-----------------------------|-5---5-5---5-5---5-------5---|

[E] [E]  
S S S S S S S S S S S S S S S S S S S S S S S S
 
 |-------------------------------|-----------------------------|
 |-------------------------------|-8-8-8---8---8-8-8-8-8-8-8-8-|
 |-----------------9-9-10-10-9-9-|-----------------------------|
 |-7-7-7---7---7-7---------------|-----------------8-8-8-8-8-8-|
 |-------------------------------|-----------------------------|
 |-------------------------------|-----------------------------|

|
 
 | |--3--| |--3--|

| E S S S E E E E E S S S E E E E
 
 |-------------------------------|-----------------------------|
 |-------------------------------|-----------------------------|
 |-------------------------------|-----------------------------|
 |-------------------------------|-8---8-8---8-8---8-------8---|
 |-7---7-7---7-7---7---------7---|-6---6-6---6-6---6-------6---|
 |-5---5-5---5-5---5---------5---|-----------------------------|

[E] [E]  
16/8
S S S S S S S S S S S S Q
 
 |--------------------------------------|
 |-----------8--8-8-8---8---8---8-------|
 |--------------------------------------|
 |---------8-8--8-8-8---8---8---8-------|
 |-6-7-1-1------------------------------|
 |--------------------------------------|

|
| S S S S Q. T T T E. T T T S
 
 |--------------------------------------|
 |--------------------------------------|
 |--------------------------------------|
 |-8-8-8-8--------8-8-8-----8-8-8-------|
 |-6-6-7-7--------7-7-7-----7-7-7-------|
 |--------------------------------------|

12/8
S S S S S S S S S S S S S S S S S S S S S S S S
 
 |--------------------------|-------------------------------|
 |--------6-----------6-----|-------6-------------9---------|
 |------9---9-------9---9---|-----9---9--------12---12------|
 |---7--------7---7-------7-|---7-------7---10---------10---|
 |-0------------0-----------|-0-----------0-----------------|
 |--------------------------|-------------------------------|

|
| H. H
 
 |--------------------------|-------------------------------|
 |--------------------------|-------------------------------|
 |--------------------------|-------------------------------|
 |--------------------------|-------------------------------|
 |---7----------------------|-7-----------------------------|
 |---5----------------------|-5-----------------------------|

S S S S S S S S S S S S S S S S S S S S S S S S
 
 |-------------------------|-----------------------------|
 |-------6-----------6-----|----------6-----5------------|
 |-----9---9-------9---9---|--------9---9-----8----8-----|
 |---7-------7---7-------7-|-----7--------7-----6----6---|
 |-0-----------0-----------|--0------------------------0-|
 |-------------------------|-----------------------------|

|
| +H.
 
 |-------------------------|-----------------------------|
 |-------------------------|-----------------------------|
 |-------------------------|-----------------------------|
 |-------------------------|-----------------------------|
 |-------------------------|-(7)-------------------------|
 |-------------------------|-(5)-------------------------|

|
| Gtr II
| Q. Q.
 
 |-------------------------|-----------------------------|
 |-------------------------|-----------------------------|
 |-------------------------|-----------------------------|
 |-------------------------|-----------------------------|
 |-------------------------|--------------------6--------|
 |-------------------------|--------------------4--------|

S S S S S S S S S S S S
 
 |------------------------------------|
 |----------6---------------6---------|
 |------9-------9-------9-------9-----|
 |----7-----------7---7-----------7---|
 |-0----------------0-----------------|
 |------------------------------------|

|
 
 | |--3--| |--3--|

| S S S S S S S S S S S S S S
 
 |------------------------------------|
 |------------------------------------|
 |------------------------------------|
 |------------------------------------|
 |-7------------7---7-----------7-----|
 |-5----5-5---5-5---5---5-5---5-5-----|

|
| H.
 
 |------------------------------------|
 |------------------------------------|
 |------------------------------------|
 |------------------------------------|
 |-7----------------------------------|
 |-5----------------------------------|

S S S S S S S S S S S S
 
 |---------------------------------------|
 |-----------6-----------------9---------|
 |-------9-------9--------12-------12----|
 |-----7-----------7---10-------------10-|
 |--0----------------0-------------------|
 |---------------------------------------|

|
 
 | |--3--| |--3--|

| S S S S S S S S S S S S S S
 
 |---------------------------------------|
 |---------------------------------------|
 |---------------------------------------|
 |---------------------------------------|
 |--7------------7---7--------------7----|
 |--5----5-5---5-5---5-----5-5---5--5----|

|
| +H.
 
 |---------------------------------------|
 |---------------------------------------|
 |---------------------------------------|
 |---------------------------------------|
 |-(7)-----------------------------------|
 |-(5)-----------------------------------|

S S S S S S S S S S S S S S S S S S S S S S S S
 
 |-----------------------------------|------------------------------------|
 |-----------6---------------6-------|-----------6-------5----------------|
 |-------9-------9-------9-------9---|-------9-------9-----8------8-------|
 |-----7-----------7---7-----------7-|-----7-----------7------6-------6---|
 |--0----------------0---------------|--0-------------------------------0-|
 |-----------------------------------|------------------------------------|

|
 
 | |--3--| |--3--| |--3--| |--3--|

| S S S S S S S S S S S S S S S S S S S S S S S S S S S S
 
 |-----------------------------------|------------------------------------|
 |-----------------------------------|------------------------------------|
 |-----------------------------------|------------------------------------|
 |-----------------------------------|------------------------------------|
 |--7------------7---7-----------7---|--7------------7---7------------7---|
 |--5----5-5---5-5---5---5-5---5-5---|--5----5-5---5-5---5----5-5---5-5---|

|
| +H. +Q. Q.
 
 |-----------------------------------|------------------------------------|
 |-----------------------------------|------------------------------------|
 |-----------------------------------|------------------------------------|
 |-----------------------------------|------------------------------------|
 |-(7)-------------------------------|-(7)-----------------6--------------|
 |-(5)-------------------------------|-(5)-----------------4--------------|

S S S S S S S S S S S S S S S S S S S S S S S S
 
 |----------------------------------|---------------------------------------|
 |----------6---------------6-------|-----------6-----------------9---------|
 |------9-------9-------9-------9---|-------9-------9--------12-------12----|
 |----7-----------7---7-----------7-|-----7-----------7---10-------------10-|
 |-0----------------0---------------|--0----------------0-------------------|
 |----------------------------------|---------------------------------------|

|
 
 | |--3--| |--3--| |--3--| |--3--|

| S S S S S S S S S S S S S S S S S S S S S S S S S S S S
 
 |----------------------------------|---------------------------------------|
 |----------------------------------|---------------------------------------|
 |----------------------------------|---------------------------------------|
 |----------------------------------|---------------------------------------|
 |-7------------7---7-----------7---|--7------------7---7--------------7----|
 |-5----5-5---5-5---5---5-5---5-5---|--5----5-5---5-5---5-----5-5---5--5----|

|
| H. +H.
 
 |----------------------------------|---------------------------------------|
 |----------------------------------|---------------------------------------|
 |----------------------------------|---------------------------------------|
 |----------------------------------|---------------------------------------|
 |-7--------------------------------|-(7)-----------------------------------|
 |-5--------------------------------|-(5)-----------------------------------|

S S S S S S S S S S S S
 
 |-----------------------------------|
 |-----------6---------------6-------|
 |-------9-------9-------9-------9---|
 |-----7-----------7---7-----------7-|
 |--0----------------0---------------|
 |-----------------------------------|

|
 
 | |--3--| |--3--|

| S S S S S S S S S S S S S S
 
 |-----------------------------------|
 |-----------------------------------|
 |-----------------------------------|
 |-----------------------------------|
 |--7------------7---7-----------7---|
 |--5----5-5---5-5---5---5-5---5-5---|

|
| +H.
 
 |-----------------------------------|
 |-----------------------------------|
 |-----------------------------------|
 |-----------------------------------|
 |-(7)-------------------------------|
 |-(5)-------------------------------|

S S S S S S S S S S S S Wx16
 
 |------------------------------------|----------------------|
 |-----------6--------5---------------|----------------------|
 |-------9-------9------8-----8-------|----------------------|
 |-----7-----------7------6-------6---|----------------------|
 |--0-------------------------------0-|----------------------|
 |------------------------------------|----------------------|

|
 
 | |--3--| |--3--|

| S S S S S S S S S S S S S S Wx16
 
 |------------------------------------|----------------------|
 |------------------------------------|----------------------|
 |------------------------------------|----------------------|
 |------------------------------------|----------------------|
 |--7------------7----7-----------7---|----------------------|
 |--5----5-5---5-5----5---5-5---5-5---|----------------------|

|
| +Q. Q. Wx16
 
 |------------------------------------|----------------------|
 |------------------------------------|----------------------|
 |------------------------------------|----------------------|
 |------------------------------------|----------------------|
 |-(7)-------------6------------------|----------------------|
 |-(5)-------------4------------------|----------------------|

1.,2.,3.
Gtr II
 
 |-3-| |-3-| |-3-| |-3-|

E S S S E E E E E S S S E E E E E S S S E E E E E S S S E E E E 4x
 
 ||------------------|-----------------|-----------------|-------------------||
 ||o-----------------|-----------------|-----------------|------------------o||
 ||------------------|-----------------|-----------------|-------------------||
 ||------------------|-----------------|-8-8-8-8-8-8---8-|-8-8-8-8-8-8---8---||
 ||o-7-7-7-7-7-7---7-|-7-7-7-7-7-7---7-|-6-6-6-6-6-6---6-|-6-6-6-6-6-6---6--o||
 ||--5-5-5-5-5-5---5-|-5-5-5-5-5-5---5-|-----------------|-------------------||

[E] [E] [E] [E] 
4.
 
 |-3-| |-3-| |-3-| |-3-| |-3-| |-3-| |-3-|

E S S S E S S E E E S S S E E S S S S S S E S S S E E S S S S S S
 
 |-------------------|-------------------------|-------------------------|
 |-------------------|-------------------------|-------------------------|
 |-------------------|-------------------------|-------------------------|
 |-8-8-8-8-8-8-8-8-8-|-------------------------|-------------------------|
 |-6-6-6-6-6-6-7-7-7-|-------------------------|-------------------------|
 |-------------------|-5-5-5-5-5-5-5-5-5-5-5-5-|-5-5-5-5-5-5-5-5-5-5-5-5-|

[E]  
 
 |-3-| |-3-| |-3-| |-3-| |-3-| |-3-| |-3-| |-3-| |-3-|

E S S S E T T T T T T T T T T T T T T T T T T E S S S E E S S S E
 
 |-----------------------------------------------|----------------------|
 |-----------------------------------------------|----------------------|
 |-----------------------------------------------|----------------------|
 |-----------------------------------------------|----------------------|
 |-6-6-6-6-6-6-6-6-6-6-6-6-6-6-6-6-6-6-6-6-6-6-6-|-6-6-6-6-6-6-6-6-6-6--|
 |-----------------------------------------------|----------------------|
 |-3-| |-3-| |-3-| |-3-| |-3-| |-3-|

E S S S E E S S S S S S E S S S E E S S S S S S
 
 |-------------------------|-------------------------|
 |-------------------------|-------------------------|
 |-------------------------|-------------------------|
 |-------------------------|-------------------------|
 |-------------------------|-------------------------|
 |-5-5-5-5-5-5-5-5-5-5-5-5-|-5-5-5-5-5-5-5-5-5-5-5-5-|
 |-3-| |-3-| |-3-| |-3-| |-3-| |-3-| |-3-|

E S S S E T T T T T T T T T T T T T T T T T T
 
 |------------------------------------------------|
 |------------------------------------------------|
 |------------------------------------------------|
 |------------------------------------------------|
 |-6-6-6-6-6-6-6-6-6-6-6-6-6-6-6-6-6-6-6-6-6-6-6--|
 |------------------------------------------------|
 |-3-| |-3-| |-3-| |-3-| |-3-| |-3-| |-3-| |-3-| |-3-|

E S S S E E S S S S S S E S S S E E S S S S S S E S S S E E S S S S S S
 
 |-------------------------|-------------------------|--------------------------|
 |-------------------------|-------------------------|--------------------------|
 |-------------------------|-------------------------|--------------------------|
 |-------------------------|-------------------------|--------------------------|
 |-6-6-6-6-6-6-6-6-6-6-6-6-|-------------------------|--------------------------|
 |-------------------------|-5-5-5-5-5-5-5-5-5-5-5-5-|-5-5-5-5-5-5-5-5-5-5-5-5--|
 |-3-| |-3-| |-3-| |-3-| |-3-| |-3-| |-3-| |-3-| |-3-| |-3-|

E S S S E T T T T T T T T T T T T T T T T T T E S S S E E S S S S S S
 
 |-----------------------------------------------|--------------------------|
 |-----------------------------------------------|--------------------------|
 |-----------------------------------------------|--------------------------|
 |-----------------------------------------------|--------------------------|
 |-6-6-6-6-6-6-6-6-6-6-6-6-6-6-6-6-6-6-6-6-6-6-6-|-6-6-6-6-6-6-6-6-6-6-6-6--|
 |-----------------------------------------------|--------------------------|
 |-3-| |-3-| |-3-| |-3-| |-3-| |-3-|

E S S S E E S S S S S S E S S S E E S S S S S S
 
 |-------------------------|-------------------------|
 |-------------------------|-------------------------|
 |-------------------------|-------------------------|
 |-------------------------|-------------------------|
 |-------------------------|-------------------------|
 |-5-5-5-5-5-5-5-5-5-5-5-5-|-5-5-5-5-5-5-5-5-5-5-5-5-|
 |-3-| |-3-| |-3-| |-3-| |-3-| |-3-| |-3-|

E S S S E T T T T T T T T T T T T T T T T T T
 
 |------------------------------------------------|
 |------------------------------------------------|
 |------------------------------------------------|
 |------------------------------------------------|
 |-6-6-6-6-6-6-6-6-6-6-6-6-6-6-6-6-6-6-6-6-6-6-6--|
 |------------------------------------------------|

Gtr I
S S S S S S S S S S S S
 
 |-------------------------|--------------------------|
 |-------------------------|--------6-----------------|
 |-------------------------|------9-------------------|
 |-------------------------|----7-----7-7-7-7-7-7-7-7-|
 |-------------------------|-0------------------------|
 |-------------------------|--------------------------|

|
| |-3-|
| E S S S E E S S S S S S H.
 
 |-------------------------|--------------------------|
 |-------------------------|--------------------------|
 |-------------------------|--------------------------|
 |-----------------8-8-----|--------------------------|
 |-6-6-6-6-6-6-6-7---------|-7------------------------|
 |---------------------6-6-|-5------------------------|

S S S S S S S S S S S S
 
 |-------5-5-12-12-12-12-5-5------|
 |--5--5---------------------5-5--|
 |--------------------------------|
 |--------------------------------|
 |--------------------------------|
 |--------------------------------|

|
| +H.
 
 |--------------------------------|
 |--------------------------------|
 |--------------------------------|
 |--------------------------------|
 |-(7)----------------------------|
 |-(5)----------------------------|

S S S S S S S S S S S S S S S S S S S S S S S S
 
 |-------------------------|-------------------------|
 |-------------------------|-------------------------|
 |-------8-8-8-------------|-------------------------|
 |-------------------8-8-8-|-------8-7-8-----8-8-----|
 |-6-6-6-------6-6-6-------|-6-6-6-------6-6---------|
 |-------------------------|---------------------6-6-|

|
 
 |-------------------------|-------------------------|
 |-------------------------|-------------------------|
 |-------------------------|-------------------------|
 |-------------------------|-------------------------|
 |-------------------------|-------------------------|
 |-------------------------|-------------------------|

S S S S S S S S S S S S
 
 |---------------------------|
 |--------6------------------|
 |------9--------------------|
 |----7-----7-7-7-7-7-7-7-7--|
 |-0-------------------------|
 |---------------------------|

|
| Gtr II
| H.
 
 |---------------------------|
 |---------------------------|
 |---------------------------|
 |---------------------------|
 |-7-------------------------|
 |-5-------------------------|

S S S S S S S S S S S S
 
 |-------5-5-12-12-12-12-5-5-----|
 |--5--5---------------------5-5-|
 |-------------------------------|
 |-------------------------------|
 |-------------------------------|
 |-------------------------------|

|
| +H.
 
 |-------------------------------|
 |-------------------------------|
 |-------------------------------|
 |-------------------------------|
 |-(7)---------------------------|
 |-(5)---------------------------|

S S S S S S S S S S S S S S S S S S S S S S S S
 
 |-------------------------|--------------------------|
 |-------------------------|--------------------------|
 |-------8-8-8-------------|--------------------------|
 |-------------------8-8-8-|-------8-7-8-----8-8------|
 |-6-6-6-------6-6-6-------|-6-6-6-------6-6----------|
 |-------------------------|---------------------6-6--|

|
 
 |-------------------------|--------------------------|
 |-------------------------|--------------------------|
 |-------------------------|--------------------------|
 |-------------------------|--------------------------|
 |-------------------------|--------------------------|
 |-------------------------|--------------------------|

S S S S S S S S S S S S
 
 |-----------------------------|
 |---------6-------------------|
 |-----9-----------------------|
 |---7---------7-7-7-7-7-7-7-7-|
 |-0---------------------------|
 |-----------------------------|

|
| |--3--|
| E S S S E E E E
 
 |-----------------------------|
 |-----------------------------|
 |-----------------------------|
 |-----------------------------|
 |-7---7-7---7-7---7-------7---|
 |-5---5-5---5-5---5-------5---|

[E]  
S S S S S S S S S S S S S S S S S S S S S S S S
 
 |-------------------------------|-----------------------------|
 |-------------------------------|-8-8-8---8---8-8-8-8-8-8-8-8-|
 |-----------------9-9-10-10-9-9-|-----------------------------|
 |-7-7-7---7---7-7---------------|-----------------8-8-8-8-8-8-|
 |-------------------------------|-----------------------------|
 |-------------------------------|-----------------------------|

|
 
 | |--3--| |--3--|

| E S S S E E E E E S S S E E E E
 
 |-------------------------------|-----------------------------|
 |-------------------------------|-----------------------------|
 |-------------------------------|-----------------------------|
 |-------------------------------|-8---8-8---8-8---8-------8---|
 |-7---7-7---7-7---7---------7---|-6---6-6---6-6---6-------6---|
 |-5---5-5---5-5---5---------5---|-----------------------------|

[E] [E]  
S S S S S S S S S S S S S S S S S S S S S S S S
 
 |-----------------------------|-----------------------------|
 |-----------------------------|---------6-------------------|
 |-----------------------------|-----9-----------------------|
 |-8-8-8---8---8-8-----8-8-----|---7---------7-7-7-7-7-7-7-7-|
 |-----------------6-7-----1-1-|-0---------------------------|
 |-----------------------------|-----------------------------|

|
 
 | |--3--| |--3--|

| E S S S E E E E E S S S E E E E
 
 |-----------------------------|-----------------------------|
 |-----------------------------|-----------------------------|
 |-----------------------------|-----------------------------|
 |-8---8-8---8-8---8-------8---|-----------------------------|
 |-6---6-6---6-6---6-------6---|-7---7-7---7-7---7-------7---|
 |-----------------------------|-5---5-5---5-5---5-------5---|

[E] [E]  
S S S S S S S S S S S S
 
 |-------------------------------|
 |-------------------------------|
 |-----------------9-9-10-10-9-9-|
 |-7-7-7---7---7-7---------------|
 |-------------------------------|
 |-------------------------------|

|
| |--3--|
| E S S S E E E E
 
 |-------------------------------|
 |-------------------------------|
 |-------------------------------|
 |-------------------------------|
 |-7---7-7---7-7---7---------7---|
 |-5---5-5---5-5---5---------5---|

[E]  
S S S S S S S S S S S S
 
 |-----------------------------|
 |-8-8-8---8---8-8-8-8-8-8-8-8-|
 |-----------------------------|
 |-----------------8-8-8-8-8-8-|
 |-----------------------------|
 |-----------------------------|

|
| |--3--|
| E S S S E E E E
 
 |-----------------------------|
 |-----------------------------|
 |-----------------------------|
 |-8---8-8---8-8---8-------8---|
 |-6---6-6---6-6---6-------6---|
 |-----------------------------|

[E]  
S S S S S S S S S S S S
 
 |-----------------------------|---------------------------|
 |-----------------------------|---------------------------|
 |-----------------------------|---------------------------|
 |-8-8-8---8---8-8-----8-8-----|---------------------------|
 |-----------------6-7-----1-1-|---------------------------|
 |-----------------------------|---------------------------|

|
 
 | |--3--| |-3-| |-3-| |-3-|

| E S S S E S S E E E S S S E E S S S S S S
 
 |-----------------------------|---------------------------|
 |-----------------------------|---------------------------|
 |-----------------------------|---------------------------|
 |-8---8-8---8-8---8-8-8---8---|---------------------------|
 |-6---6-6---6-6---6-7-7---7---|---------------------------|
 |-----------------------------|-5-5-5-5-5-5-5-5-5-5-5-5---|

[E]  
Gtr II
 
 |-3-| |-3-| |-3-| |-3-|

E S S S E E S S S S S S E S S S E T T T T T T T T T T T T
 
 |-------------------------|-----------------------------------|
 |-------------------------|-----------------------------------|
 |-------------------------|-----------------------------------|
 |-------------------------|-----------------------------------|
 |-------------------------|-6-6-6-6-6-6-6-6-6-6-6-6-6-6-6-6-6-|
 |-5-5-5-5-5-5-5-5-5-5-5-5-|-----------------------------------|
 |-3-| |-3-| |-3-| |-3-| |-3-| |-3-| |-3-| |-3-| |-3-|

E S S S E E S S S S S S E S S S E E S S S S S S E

Important: The song above is NOT stored on the Chordie server. The original song is hosted at www.azchords.com. Chordie works as a search engine and provides on-the-fly formatting. Chordie does not index songs against artists'/composers' will. To remove this song please click here.

Text color:
Chord color:
Chord grids: 
Font size:    
Page size: 

E
Rate #1 of 2 versions

Login - add to songbook

SHARE PAGE  




You need to log in to post comments