Guitar Tabs, Chords and Lyrics
Update 25:10. 13:00. Site is back up running again. Songbooks are recovered. Woring on getting search back up..


Ultraviolet  McFly

Hi, this is going to be Mcfly‚??s new single, a double a-side with Ballad of Paul K. I
no-one had done the intro or first chorus properly. So here is the full song, including
the
for the intro and verse. I‚??m pretty sure it‚??s correct, but if you notice something wrong
Happy Playing!
INTRO
 
 e|--------2--------------2--------------3--------------3-----------|
 B|------1‚??--1---1------1---1---1------1---1---1------1---1---1-----|
 G|----2-------2------2-------2------2-------2------2-------2-------|
 D|--0--------------0--------------0--------------0-----------------|
 A|-----------------------------------------------------------------|
 E|-----------------------------------------------------------------|

VERSE
Play the first half of the verse, represented by 1, and then carry on to second half of
verse, represented by 2, after ‚??Wonderland‚??. So play 1, 2, then Chorus.
1.Nothing goes to plan,
2.There's magic in the air,
 
 e|--------2----------------------2-------|
 B|------1‚??--1---1--------------1---1---1-|
 G|----2-------2--------------2-------2---|
 D|--0----------------------0-------------|
 A|---------------------------------------|
 E|---------------------------------------|

1.It‚??s all a game of chance they in,
2.A tragic love affair that I don't
 
 e|-------3------------------3--------|
 B|-----1---1---1----------1---1---1--|
 G|---2-------2----------2-------2----|
 D|-0------------------0--------------|
 A|-----------------------------------|
 E|-----------------------------------|

1.Won--der--land
2.Un‚??-der‚??stand D(only play this ‚??D‚?? after‚??Understand‚??
 
 e|--------2----------------3----------2-|
 B|------1‚??--1---1--------1---1---1----3-|
 G|----2-------2--------2-------2------2-|
 D|--0----------------0----------------0-|
 A|--------------------------------------|
 E|--------------------------------------|

CHORUS
[G]These summer gir[A]ls are really s[D]omet[C#m]hing e[Bm]lse (it won‚??t be long)
[G]Our lives are sh[A]ort but the nights are l[D]ong
VERSE
*Note: You can play either normal ‚??D‚?? or ‚??D7‚??, either way it sounds correct.
D(7) G D<-(let ring)
Mrs halloween
G D(7)<-(let ring)
Is drinking at the bar again in New Orleans
G C G<-(let ring)
She throws another dart
C D<-(let ring)
It narrowly avoids my lonely broken heart
[D(7)]Torn apart
[G]These summer gir[A]ls are really s[D]omet[C#m]hing e[Bm]lse (it won‚??t be long)
[G]Our lives are sh[A]ort but the nights are lo[D]ng
The [C]nights go [G]on and o[D]n
The [C]nights go [G]on and o[D]n
C G D<-(let ring)
The nights go on and on
MIDDLE 8
CC-CCGG-GG ‚?? Single strums downwards.
[Bm]So pinch me I must be dreaming
[A]My life has lost all its meaning
[G]But i like the w[A]ay I'm feeling no[D]w
[Bm]Kissing her lips at midnight
[A]Under the stars and moonlight
[G]But i never [A]thought we'd be this [D]wrong
The [C]nights go [G]on and o[D]n
The [C]nights go [G]on and o[D]n
C G D<-(let ring)
The nights go on and on
VERSE
*Last verse uses the same music as the first verse, so just play the guitar part for the
verse and sing the words below to fit!
She's looking good tonight
I love the way she glows in ultraviolet light
Intoxicate my mind
I know that love is blind
And I'm not seeing right
I'm not alright
[G]These summer gir[A]ls are really s[D]omet[C#m]hing e[Bm]lse (it won‚??t be long)
[G]Our lives are sh[A]ort and the nights are l[D]ong
The [C]nights go [G]on and o[D]n
The [C]nights go [G]on and o[D]n
C G D<-(let ring)
The nights go on and on
OUTRO
 
 e|--------2--------------3--------------2----------3-2-------------|
 B|------1‚??--1---1------1---1---1------1---1---1--------3-1-0-------|
 G|----2-------2------2-------2------2-------2----------------------|
 D|--0--------------0--------------0--------------------------------|
 A|-----------------------------------------------------------------|
 E|-----------------------------------------------------------------|

*Play open D
and let ring.
 
 e|--------2---------3---------2-----2------------------------------|
 B|------1‚??--------1---------1-------2------------------------------|
 G|----2---------2---------2---------3------------------------------|
 D|--0---------0---------0-----------0------------------------------|
 A|-----------------------------------------------------------------|
 E|-----------------------------------------------------------------|


Important: The song above is NOT stored on the Chordie server. The original song is hosted at www.azchords.com. Chordie works as a search engine and provides on-the-fly formatting. Chordie does not index songs against artists'/composers' will. To remove this song please click here.

Text color:
Chord color:
Chord grids: 
Font size:    
Page size: 

A Bm C C#m D D(7) G
Rate #1 of 6 versions

Jango Player

Login - add to songbook

SHARE PAGE  



You need to log in to post comments