Guitar Tabs, Chords and Lyrics
Server problems seems to be fixed. Chordie has been experiencing problems with songs disappearing. These issues now seems to be fixed, but still verifying the fix. If you find anything strange, please email admin@chordie.com.


Annie's Song  Me First and the Gimme Gimmes

[Intro] 
 
 e|-----------------|------------------|
 B|-----------------|------------------|
 G|-----------------|------------------|
 D|-----------------|------------------|
 A|-x-x-x-x-x-x-x-x-|-x-x-x-x-x-x-x-x--|
 E|-x-x-x-x-x-x-x-x-|-x-x-x-x-x-x-x-x--|
 e|-----------------|---------------------|-----------------|------------------|
 B|-----------------|---------------------|-----------------|------------------|
 G|-----------------|---------------------|-----------------|------------------|
 D|-----------------|---------------------|-----------------|------------------|
 A|-7-7-7-7-9-9-9-9-|-11-11-11-11-7-7-7-7-|-2-2-2-2-2-2-2-2-|-6-6-6-6-6-6-6-6--|
 E|-5-5-5-5-7-7-7-7-|-9--9--9--9--5-5-5-5-|-0-0-0-0-0-0-0-0-|-4-4-4-4-4-4-4-4--|
 P.M. ------------------------------------------------------------------------|
 e|-----------------|-----------------|---------------|--------------|
 B|-----------------|-----------------|---------------|--------------|
 G|-----------------|-----------------|---------------|--------------|
 D|-----------------|-----------------|---------------|--------------|
 A|-7-7-7-7-7-7-7-7-|-4-4-4-4-7-7-7-7-|-9-9-9-9-9-9-9-|--x\----------|
 E|-5-5-5-5-4-4-4-4-|-2-2-2-2-5-5-5-5-|-7-7-7-7-7-7-7-|--x\----------|
 P.M. ------------------------------------------------|

[Verse 1] 
 
 e|-----------------|---------------------|-----------------|------------------|
 B|-----------------|---------------------|-----------------|------------------|
 G|-----------------|---------------------|-9-9-9-9-9-9-9-9-|------------------|
 D|-7-7-7-7-9-9-9-9-|-11-11-11-11-7-7-7-7-|-9-9-9-9-9-9-9-9-|-6-6-6-6-6-6-6-6--|
 A|-7-7-7-7-9-9-9-9-|-11-11-11-11-7-7-7-7-|-7-7-7-7-7-7-7-7-|-6-6-6-6-6-6-6-6--|
 E|-5-5-5-5-7-7-7-7-|-9--9--9--9--5-5-5-5-|-----------------|-4-4-4-4-4-4-4-4--|
 e|-----------------|-----------------|-----------------|------------------|
 B|-----------------|-----------------|-----------------|------------------|
 G|-----------------|-----------------|-9-9-9-9-9-9-9-9-|-9-9-9-9-9-9-9-9--|
 D|-7-7-7-7-6-6-6-6-|-4-4-4-4-9-9-9-9-|-9-9-9-9-9-9-9-9-|-9-9-9-9-9-9-9-9--|
 A|-7-7-7-7-7-7-7-7-|-4-4-4-4-9-9-9-9-|-7-7-7-7-7-7-7-7-|-7-7-7-7-7-7-7-7--|
 E|-5-5-5-5-4-4-4-4-|-2-2-2-2-7-7-7-7-|-----------------|------------------|

[Solo] 
with guitar 1 playing first verse - E major scale - (first measure starts on last verse measure)
[A5] [B5] [C#5] [A5] [E5] [G#5] 
 
 e|--------------|--------------|------------------|-----------|-------------------------|
 B|--------------|--------------|------------------|-----------|--9---9---9---9----------|
 G|--9-9-9--8--6-|--9----8-8----|------6-6-6--8--9-|-----------|--11b-11b-11b-11b--------|
 D|--------------|--------------|------------------|--9---6----|-------------------------|
 A|--------------|--------------|------------------|-----------|-------------------------|
 E|--------------|--------------|------------------|-----------|-------------------------|

[A5] [G#5+] [F#5] [A] 
 
 e|--12-11-9----9-11-9----9--------------------|--------------------------------------|
 B|----------12--------12---12-10-9-12-10-9----|-9-10-9----9--------------------------|
 G|-----------------------------------------11-|--------11---11-9-8-9-8----8-9-8----8-|
 D|--------------------------------------------|------------------------11-------11---|
 A|--------------------------------------------|--------------------------------------|
 E|--------------------------------------------|--------------------------------------|

[B5]  
 
 e|--------------------------------------------|--------------------------------------|
 B|--------------------------------------------|--------------------------------------|
 G|--------------------------------------------|--------------------------------------|
 D|-11-9----9-11-9----9------------------------|--------------------------------------|
 A|------11--------11---11-9-7-9-7--9---7------|--/9-----------------x\---------------|
 E|-----------------------------------------9--|---------------------x\---------------|

[Verse 2] 
 
 e|-----------------|---------------------|-----------------|------------------|
 B|-----------------|---------------------|-----------------|------------------|
 G|-----------------|---------------------|-----------------|------------------|
 D|-----------------|---------------------|-----------------|------------------|
 A|-7-7-7-7-9-9-9-9-|-11-11-11-11-7-7-7-7-|-2-2-2-2-2-2-2-2-|-6-6-6-6-6-6-6-6--|
 E|-5-5-5-5-7-7-7-7-|-9--9--9--9--5-5-5-5-|-0-0-0-0-0-0-0-0-|-4-4-4-4-4-4-4-4--|
 P.M. -------------------------------------------------------------------------|
 e|-----------------|-----------------|-----------------|----------------------|
 B|-----------------|-----------------|-----------------|----------------------|
 G|-----------------|-----------------|-----------------|----------------------|
 D|-----------------|-----------------|-9-9-9-9-9-9-9-9-|-x\-------------------|
 A|-7-7-7-7-7-7-7-7-|-4-4-4-4-9-9-9-9-|-7-7-7-7-7-7-7-7-|-x\-------------------|
 E|-5-5-5-5-4-4-4-4-|-2-2-2-2-7-7-7-7-|-----------------|----------------------|
 P.M. --------------------------------------------------|
 e|-----------------|---------------------|-----------------|-------------------------|
 B|-----------------|---------------------|-----------------|-------------------------|
 G|-----------------|---------------------|-9-9-9-9-9-9-9-9-|-13-13-13-13-13-13-13-13-|
 D|-7-7-7-7-9-9-9-9-|-11-11-11-11-7-7-7-7-|-9-9-9-9-9-9-9-9-|-13-13-13-13-13-13-13-13-|
 A|-7-7-7-7-9-9-9-9-|-11-11-11-11-7-7-7-7-|-7-7-7-7-7-7-7-7-|-11-11-11-11-11-11-11-11-|
 E|-5-5-5-5-7-7-7-7-|-9--9--9--9--5-5-5-5-|-----------------|-------------------------|
 e|-----------------|-----------------|-----------------|------------------|
 B|-----------------|-----------------|-----------------|------------------|
 G|-----------------|-----------------|-9-9-9-9-9-9-9-9-|-9-9-9-9-9-9-9-9--|
 D|-7-7-7-7-6-6-6-6-|-4-4-4-4-9-9-9-9-|-9-9-9-9-9-9-9-9-|-9-9-9-9-9-9-9-9--|
 A|-7-7-7-7-7-7-7-7-|-4-4-4-4-9-9-9-9-|-7-7-7-7-7-7-7-7-|-7-7-7-7-7-7-7-7--|
 E|-5-5-5-5-4-4-4-4-|-2-2-2-2-7-7-7-7-|-----------------|------------------|

[Solo] 
(first measure starts on last verse measure)
[A] [B] [C#m] [A] [E] [G#7] 
 
 e|--------------|--------------|------------------|-----------|----------------|
 B|--------------|--------------|------------------|-----------|----9-9-9--7--5-|
 G|--9-9-9--8--6-|--9----8-8----|------6-6-6--8--9-|-----------|----------------|
 D|--------------|--------------|------------------|--9---6----|----------------|
 A|--------------|--------------|------------------|-----------|----------------|
 E|--------------|--------------|------------------|-----------|----------------|

[A] [G#m] [F#m] [A] [B] 
 
 e|--------------|------------------|-----------|-----------|
 B|--9----7-7----|------5-5-5--7--9-|-----------|-----------|
 G|--------------|------------------|--8--------|-----------|
 D|--------------|------------------|-----------|-----------|
 A|--------------|------------------|-----------|-----------|
 E|--------------|------------------|-----------|-----------|

[Break] 
Guitar 2 plays this while Guitar 1 plays the little solo above, then both rings these chords
[A] [B] [C#m] [A] [E] [G#7] [A] [G#m] [F#m] [A] [B] 
 
 e|-5---7--|--9---5--|--0-------|--4------|--5---4---|--2---5--|--7------|------------|
 B|-5---7--|--9---5--|--0-------|--4------|--5---4---|--2---5--|--7------|------------|
 G|-6---8--|--9---6--|--1-------|--5------|--6---4---|--2---6--|--8------|------------|
 D|-7---9--|--11--7--|--2-------|--4------|--7---6---|--4---7--|--9------|------------|
 A|-7---9--|--11--7--|--2-------|--6------|--7---6---|--4---7--|--9------|------------|
 E|-5---7--|--9---5--|--0-------|--4------|--5---4---|--2---5--|--7------|------------|

[Outro] 
 
 e|---------------|------------------|
 B|---------------|------------------|
 G|---------------|------------------|
 D|-7-------9-----|--11-------7------|
 A|-7-------9-----|--11-------7------|
 E|-5-------7-----|--9--------5------|
 e|-----------------|-----------------|-----------------|-----------------|-----------------|-------------|
 B|-----------------|-----------------|-----------------|-----------------|-----------------|-------------|
 G|-----------------|-----------------|-----------------|-----------------|-9-9-9-9-9-9-9-9-|-9\----------|
 D|-9-9-9-9-8-8-8-8-|-6-6-6-6---------|-----------------|-----------------|-9-9-9-9-9-9-9-9-|-9\----------|
 A|-7-7-7-7-6-6-6-6-|-4-4-4-4-9-9-9-9-|-7-7-7-7-6-6-6-6-|-4-4-4-4-9-9-9-9-|-7-7-7-7-7-7-7-7-|-7\----------|
 E|-----------------|---------7-7-7-7-|-5-5-5-5-4-4-4-4-|-2-2-2-2-7-7-7-7-|-----------------|-------------|

[Fill gtr. 2 on tbe 2 last measures] 
 
 e|-12--12--12--12--12--12--12--12--|-12-\------------------|
 B|-15b-15b-15b-15b-15b-15b-15b-15b-|-15b\------------------|
 G|---------------------------------|-----------------------|
 D|---------------------------------|-----------------------|
 A|---------------------------------|-----------------------|
 E|---------------------------------|-----------------------|


Important: The song above is NOT stored on the Chordie server. The original song is hosted at www.azchords.com. Chordie works as a search engine and provides on-the-fly formatting. Chordie does not index songs against artists'/composers' will. To remove this song please click here.

Text color:
Chord color:
Chord grids: 
Font size:    
Page size: 

A A5 B B5 C#5 C#m E E5 F#5 F#m G#5 G#5+ G#7 G#m
Rate #1 of 3 versions

Jango Player

Login - add to songbook

SHARE PAGE  




You need to log in to post comments