Guitar Tabs, Chords and Lyrics
Major upgrade!! After one year development the new version of Chordie is now online! Please give feedback.


Always Wanting You  Merle Haggard

ALWAYS WANTING YOU
KEY: G
=====================
br = bend & release
h = hammer-on
p = pull-off
/ = slide up
=====================
INTRO:
ACOUSTIC PART:
N/C C
 
 E-------------------------------------------------
 B--------8--10--12----8h10--8--8----10h12--10--10-
 G-9--10-------------------------------------------
 D-------------------------------------------------
 A-------------------------------------------------
 E-------------------------------------------------

[D]  
 
 E-------------------------------------------------
 B-7--8--8p7-----7--8--10--12--12--10--------------
 G------------9------------------------------------
 D-------------------------------------------------
 A-------------------------------------------------
 E-------------------------------------------------

ELECTRIC PART:
[D] [Am] [C] [D] [G] 
 
 E-------------------------------------------------
 B-------------------------------------------------
 G-------------------------------------------------
 D-------------------------------------------------
 A-2br--2br--0----0--2--2br--2br--2br--0-----------
 E----------------------------------------2--3-----

SOLO:
ACOUSTIC PART:
[C]  
 
 E-------------------------------------------------
 B-------8--10-10-10----------8--10--10/12--10-----
 G-7--9-----------------7--9-----------------------
 D-------------------------------------------------
 A-------------------------------------------------
 E-------------------------------------------------

[D]  
 
 E-----------------------------10/12--10-----------
 B-8--7--7h8p7-----7--8--10------------------------
 G--------------9----------------------------------
 D-------------------------------------------------
 A-------------------------------------------------
 E-------------------------------------------------

ELECTRIC PART:
[D] [Am] [C] [D] [G] 
 
 E-------------------------------------------------
 B-------------------------------------------------
 G-------------------------------------------------
 D-------------------------------------------------
 A-2br--2br--0----0--2--2br--2br--2br--0-----------
 E----------------------------------------2--3-----

*On the bent B notes in the electric parts (A string, 2nd fret),
you need to bend it up a semitone to a C and then relax the string
back to the B note. OR You could either slide up to the 3rd fret &
back to the 2nd OR hammer-on & pull-off the 2nd & 3rd fret, but the
bending sounds more like the recording.

Important: The song above is NOT stored on the Chordie server. The original song is hosted at www.azchords.com. Chordie works as a search engine and provides on-the-fly formatting. Chordie does not index songs against artists'/composers' will. To remove this song please click here.

Text color:
Chord color:
Chord grids: 
Font size:    
Page size: 

Am C D G
Rate #1 of 1 versions

Login - add to songbook

SHARE PAGE  




You need to log in to post comments