Guitar Tabs, Chords and Lyrics
Major upgrade!! After one year development the new version of Chordie is now online! Please give feedback.


California Blues  Merle Haggard

Intro:
 
 e|---------------------------------------------------------------------------|
 B|--------1-1-------------1--------------------------------------------------|
 G|--------2-2-------------2--------------------------------------------------|
 D|--0-2-3-3-3-----------3-3--------------------------------------------------|
 A|-3----------3-1-0----3-----------------------------------------------------|
 E|------------------3-1------------------------------------------------------|

riff:
 
 e|------------------------------------------------------------|
 B|--------1---------------------------------------------------|
 G|--------2---------------------------------------------------|
 D|--0-2-3-3---------------------------------------------------|
 A|-3----------------------------------------------------------|
 E|------------------------------------------------------------|

[F]Well I'm going to California where they sleep out every night
I'm [A#]going to California where [Dm7]they sleep out every [F]night[C7] [C4]
[C#7]I'm [C7]leaving you [C/G]mama[C] [C/G]
C C/G F RIFF1
Cause you know you don't treat me right
C6 F C F RIFF 1 C6 F
Oooo layyy ouu layy
[F]Listen to me [C6]mam[F]a [C6] [F] [C6] [F]while [C6]I sing this s[F]ong[C6] [F] [C6] [F]
A# Dm7 Eb9 F RIFF 1 F C6 F
Listen to your daddy sing you this lonesome song
You got my [C]weary [C/G]now[C] [C/G] [C]
But I won't be [C/G]weary [F]long[C7] [F] (LONG LONG LONG)
[F]I got the California Blues and I'm sure gonna leave you [F7]here
[E7]I got the [A#]California [Dm7]Blues[Eb9] and I'm sure gonna leave you h[F]ere[F] [C6] [F]
I[C]'m lea[C/G]ving y[C]ou [C/G]mama[C] [C/G] [C] [C/G]
F RIFF1 C7 F
Cause you know you don't treat me fair
Oooo [F]layyy [C]ouu [F]layy

Important: The song above is NOT stored on the Chordie server. The original song is hosted at www.azchords.com. Chordie works as a search engine and provides on-the-fly formatting. Chordie does not index songs against artists'/composers' will. To remove this song please click here.

Text color:
Chord color:
Chord grids: 
Font size:    
Page size: 

A# C C#7 C/G C4 C6 C7 Dm7 E7 F F7
Rate #1 of 2 versions

Login - add to songbook

SHARE PAGE  



You need to log in to post comments