Guitar Tabs, Chords and Lyrics
Major upgrade!! After one year development the new version of Chordie is now online! Please give feedback.


Swingin' Doors  Merle Haggard

Swingin' Doors
Merle Haggard
Chords shown below with capo option
Intro - F Bb F C F
[F]This old smoke filled bar is something I'm not [Bb]used to,
But [F]I gave up my home to see you s[C]atisfi[C7]ed.[C]
[F]And I just called to let you know where I'll be [Bb]living.
[F]It's not much, but I feel [C7]welcome here ins[F]ide.
And I've got s[F]winging doors, a jukebox and a bar s[Bb]tool.
And [F]my new home has a flashing neon [C]sign[C7].[C]
Stop b[F]y and see me anytime you wa[Bb]nt to.
Cause [F]I'm always here at [C7]home till closing t[F]ime.
Solo - F Bb F C F
I've got everything I need to drive me crazy.
And I've got everything it takes to lose my mind.
And in here the atmospheres just right for heartaches.
And thanks to you I'm always here till closing time.
Chorus
Tag
I'm always here at home till closing time.
Capo 1
|
F = E
 
 E|-----1------0-----|
 B|-----1------0-----|
 G|-----2------1-----|
 D|-----3------2-----|
 A|-----3------2-----|
 E|-----1------0-----|

Bb = A
 
 E|-----1------0-----|
 B|-----3------2-----|
 G|-----3------2-----|
 D|-----3------2-----|
 A|-----1------0-----|
 E|-----X------X-----|

C = B
 
 E|-----0------2-----|
 B|-----1------4-----|
 G|-----0------4-----|
 D|-----2------4-----|
 A|-----3------2-----|
 E|-----X------X-----|

C7 = B7
 
 E|-----0------2-----|
 B|-----1------4-----|
 G|-----3------2-----|
 D|-----2------4-----|
 A|-----3------2-----|
 E|-----X------X-----|


Important: The song above is NOT stored on the Chordie server. The original song is hosted at www.azchords.com. Chordie works as a search engine and provides on-the-fly formatting. Chordie does not index songs against artists'/composers' will. To remove this song please click here.

Text color:
Chord color:
Chord grids: 
Font size:    
Page size: 

Bb C C7 F
Rate #1 of 1 versions

Jango Player

Login - add to songbook

SHARE PAGE  



You need to log in to post comments