Guitar Tabs, Chords and Lyrics
Server problems seems to be fixed. Chordie has been experiencing problems with songs disappearing. These issues now seems to be fixed, but still verifying the fix. If you find anything strange, please email admin@chordie.com.


Battery  Metallica

BATTERY
As recorded by Metallica
(From the 1986 Album MASTER OF PUPPETS)
Words by James Hetfield, Lars Ulrich
Music by Metallica
0 2 [E5]2 x x x 1 3 [F5]3 x x x 2 5[D/F#] x x x x 3 5 [G5]5 x x x
x 1 [Bb5]3 3 x x x 0 [A5]2 2 x x x 2 [B5]4 4 x x x 7 [Em]5 x x x
x 5[B/D#] 4 4 4 x x 3 [C5]5 5 x x x 5 [D5]7 7 x x 2 4 [F#5]4 x x x
Gtr I (E A D G B E) - 'Untitled'
Gtr II (E A D G B E) - 'Untitled'
Gtr III (E A D G B E) - 'Untitled'
Gtr IV (E A D G B E) - 'Untitled'
Intro
Moderately Slow Q=75
[E5] [Fmaj7] [F#m7] [G5]  
[4/4] Gtr I
S E. +E E +H Q E E +H
 
 |----------------------|-----------------|
 |----------------------|-----------------|
 |----------------------|-------^0-(0)----|
 |-^3--2--(2)-^2-(2)----|-^2--0-^0-(0)----|
 |-^2---------^0-(0)----|-^0----^5-(5)----|
 |-^0---------^1-(1)----|-^2----^3-(3)----|

Q. E +H
[E5]S E. +E [Fmaj7] E +H [F#m7] Q E [G5] E +H
 
 |---------------------|-----------------|
 |---------------------|-----------------|
 |---------------------|-----------------|
 |-3--2--(2)-^2-(2)----|-^2----^0-(0)----|
 |-2---------^0-(0)----|-^0--5-^5-(5)----|
 |-0---------^1-(1)----|-^2----^3-(3)----|

Q. E +H
[E5] S E. +E [Fmaj7] E +H [F#m7] Q E [G5] E +H
 
 |--------------------------------|---------------------------|
 |--------------------------------|---------------------------|
 |--------------------------------|---------------^0-(0)------|
 |-^3--2----------(2)-^2-(2)------|-^2----------0-^0-(0)------|
 |-^2-----------------^0-(0)------|-^0------------^5-(5)------|
 |-^0-----------------^1-(1)------|-^2------------^3-(3)------|

| Q. E +H
|
| Gtr II
| ~~~~~~~~~ ~
| E a a S S Q E. S Q +E a a S S E E +E E Q
 
 |--------------------------------|---------------------------|
 |------------3-5---------3--5----|---------3-5----------5-3--|
 |----------x-4-5--5------4--5-5--|-(5)---x-4-5-5--4-(4)-5-4--|
 |--------x-x------7-----------7--|-(7)-x-x-----7--5-(5)------|
 |--------x-----------------------|-----x---------------------|
 |--------------------------------|---------------------------|

E a a S S Q E. S Q +E a a S S E E +E E Q
[E5] S E. +E [Fmaj7] E +H [F#m7] Q E [G5] E +H
 
 |------------------------------------|-----------------------------|
 |------------------------------------|-----------------------------|
 |------------------------------------|-----------------------------|
 |-^3--2----------(2)-^2-(2)----------|-^2------------^0-(0)--------|
 |-^2-----------------^0-(0)----------|-^0----------5-^5-(5)--------|
 |-^0-----------------^1-(1)----------|-^2------------^3-(3)--------|

| Q. E +H
|
| ~~~~~~~~~ ~
| |-3-|
| E a a S S Q E. T T T Q +E a a S S E E +E E Q
 
 |------------------------------------|-----------------------------|
 |------------3-5---------3--3h5p3----|---------3-5----------5-3----|
 |----------x-4-5--5------4--4h5p4-5--|-(5)---x-4-5-5--4-(4)-5-4----|
 |--------x-x------7---------------7--|-(7)-x-x-----7--5-(5)--------|
 |--------x---------------------------|-----x-----------------------|
 |------------------------------------|-----------------------------|

E a a S S Q E. T T T Q +E a a S S E E +E E Q
|-3-|
[E5] S E. +E [Fmaj7] E +H [F#m7] Q E [G5] E +H
 
 |--------------------------------|---------------------------|
 |--------------------------------|---------------------------|
 |--------------------------------|---------------^0-(0)------|
 |-^3--2----------(2)-^2-(2)------|-^2----------0-^0-(0)------|
 |-^2-----------------^0-(0)------|-^0------------^5-(5)------|
 |-^0-----------------^1-(1)------|-^2------------^3-(3)------|

| Q. E +H
|
| ~~~~~~~~~ ~
| E a a S S Q E. S Q +E a a S S E E +E E Q
 
 |------------3-5---------3--5----|---------3-5----------5-3--|
 |----------x-3-5--5------3--5-5--|-(5)---x-3-5-5--3-(3)-5-3--|
 |--------x-x-4-5--5------4--5-5--|-(5)-x-x-4-5-5--4-(4)-5-4--|
 |--------x-x------7-----------7--|-(7)-x-x-----7--5-(5)------|
 |--------x-----------------------|-----x---------------------|
 |--------------------------------|---------------------------|

E a a S S Q E. S Q +E a a S S E E +E E Q
[E5] S E. +E [Fmaj7] E +H [F#m7] Q E [G5] E +H
 
 |------------------------------------|-----------------------------|
 |------------------------------------|-----------------------------|
 |------------------------------------|-----------------------------|
 |-^3--2----------(2)-^2-(2)----------|-^2------------^0-(0)--------|
 |-^2-----------------^0-(0)----------|-^0----------5-^5-(5)--------|
 |-^0-----------------^1-(1)----------|-^2------------^3-(3)--------|

| Q. E +H
|
| ~~~~~~~~~ ~
| |-3-|
| E a a S S Q E. T T T Q +E a a S S E E +E E Q
 
 |------------3-5---------3--3h5p3----|---------3-5----------5-3----|
 |----------x-3-5--5------3--3h5p3-5--|-(5)---x-3-5-5--3-(3)-5-3----|
 |--------x-x-4-5--5------4--4h5p4-5--|-(5)-x-x-4-5-5--4-(4)-5-4----|
 |--------x-x------7---------------7--|-(7)-x-x-----7--5-(5)--------|
 |--------x---------------------------|-----x-----------------------|
 |------------------------------------|-----------------------------|

E a a S S Q E. T T T Q +E a a S S E E +E E Q
|-3-|
[E5]Gtr IV[F5] [D/F#] [G5] [E5] [F5]
E S S S S E H E S S S S E H E S S S S E H
| | | | | | | | | | | | | | | | | | | | |
[/] [/] [/] [/] [/] [/] [/] [/] [/] [/] [/] [/] [/] [/] [/] [/] [/] [/] [/] [/] [/] 
Gtr III
~~ ~~~~~~~~~ ~~~~~~ ~~~~~~~~~~~ ~~ ~
E S S Q E. S Q +E S S E E +E E Q +E S S Q E. S Q
 
 |---3-5-------3--5----|-----3-5-----------5-3--||--(3)-3-5-------3--5-----|
 |---3-5-5-----3--5-5--|-(5)-3-5-5---3-(3)-5-3--||o-(3)-3-5-5-----3--5-5---|
 |---4-5-5-----4--5-5--|-(5)-4-5-5---4-(4)-5-4--||--(4)-4-5-5-----4--5-5---|
 |-------7----------7--|-(7)-----7---5-(5)------||----------7----------7---|
 |---------------------|------------------------||o------------------------|
 |---------------------|------------------------||-------------------------|

E S S Q E. S Q +E S S E E +E E Q +E S S Q E. S Q
1.,2. 3.
[D/F#] E S S S S [G5]E H [D/F#]E S S S S [G5]E H [E5]Q [B5]Q [G5]Q [B/D#]Q
| | | | | | | | | | | | | | | | | |
[/] [/] [/] [/] [/] [/] [/] [/] [/] [/] [/] [/] [/] [/] [/] [/] [/] [/] 
~~~ ~~~~~~ ~ ~~~~~~ ~
+E S S E E +E E Q E S S E E +E E Q Q Q Q Q
 
 |-----3-5-----------5-3---||-0-3-5-----------5-3--|-------------||
 |-(5)-3-5-5---3-(3)-5-3--o||-1-3-5-5---3-(3)-5-3--|-------------||
 |-(5)-4-5-5---4-(4)-5-4---||-2-4-5-5---4-(4)-5-4--|----4--------||
 |-(7)-----7---5-(5)-------||-------7---5-(5)------|-2--4--5--4--||
 |------------------------o||----------------------|-2--2--5--6--||
 |-------------------------||----------------------|-0-----3-----||

+E S S E E +E E Q E S S E E +E E Q
Fast Q=190
N.C.(E5) Bb5 A5 (E5) Em B/D#Em(E5) Bb5 A5
 
 PM----------| PM----------| PM--------|

E S S E S S E E E E E S S E S S E E E E E S S E S S E E E E
 
 ||----------------------|---------------------|---------------------|
 ||o---------------------|---------------------|---------------------|
 ||----------------------|---------------------|---------------------|
 ||----------------8-8-7-|---------------5-5-4-|-5-------------8-8-7-|
 ||o---------------8-8-7-|---------------7-7-6-|-7-------------8-8-7-|
 ||--0-0-0-0-0-0-0-6-6-5-|-0-0-0-0-0-0-0-------|---0-0-0-0-0-0-6-6-5-|

[(EF#5G5(EG5] [G#5] Gt[E5]r IV[Bb5] [A5] [E5] [Em] [B/D#]
W Q Q E E E E Q Q H
| | | | |
[/] [/] [/] [/] [/] 
Gtr III
 
 PM PM PM----------| PM----------|

E Q E E Q E E S S E S S E E E E E S S E S S E E E E
 
 |---------------|---------------------|----------------------|
 |---------------|---------------------|----------------------|
 |---------------|---------------------|----------------------|
 |---4--5---5--6-|---------------8-8-7-|---------------5-5-4--|
 |---4--5---5--6-|---------------8-8-7-|---------------7-7-6--|
 |-0-2--3-0-3--4-|-0-0-0-0-0-0-0-6-6-5-|-0-0-0-0-0-0-0--------|

[Em(E5)] [Bb5] [A5] [BbA5] Gtr [E5]IV[G5]
W E E E E E E E E W W
| | | | | | |
[/] [/] [/] [/] [/] [/] [/] 
E S S E S S E E E E E E E E E E E E W W
 
 |---------------------|------------------||----------|------|
 |---------------------|-----------------o||----------|------|
 |---------------------|------------------||----------|------|
 |-5-------------8-8-7-|-8-7---7---7---7--||----------|------|
 |-7-------------8-8-7-|-8-7---7---7---7-o||----------|------|
 |---0-0-0-0-0-0-6-6-5-|-6-5---5---5---5--||----------|------|

Verse
$
[A5]H [F5B/D#]E E Q [(E5)]W [Bb5] [A5] [E5]W[Em] [B/D#]
| | | |
[/] [/] [/] [/]  
 
 PM----------| PM----------|

W E S S E S S E E E E E S S E S S E E E E
 
 |-------------||----------------------|---------------------|
 |-------------||o---------------------|---------------------|
 |-------------||----------------------|---------------------|
 |-------------||----------------8-8-7-|---------------5-5-4-|
 |-------------||o---------------8-8-7-|---------------7-7-6-|
 |-------------||--0-0-0-0-0-0-0-6-6-5-|-0-0-0-0-0-0-0-------|

[EmE5]W [Bb5] [A5] [E5F#5G5E5G5]W [G#5] [E5]Q Q E [Bb5]E E [A5]E
| | | |
[/] [/] [/] [/] 
 
 PM--------| PM PM PM----------|

E S S E S S E E E E E Q E E Q E E S S E S S E E E E
 
 |---------------------|---------------|---------------------|
 |---------------------|---------------|---------------------|
 |---------------------|---------------|---------------------|
 |-5-------------8-8-7-|---4--5---5--6-|---------------8-8-7-|
 |-7-------------8-8-7-|---4--5---5--6-|---------------8-8-7-|
 |---0-0-0-0-0-0-6-6-5-|-0-2--3-0-3--4-|-0-0-0-0-0-0-0-6-6-5-|

[E5]Q Q H [Em] [B/D#Em(E5)] W [Bb5] [A5] [(EF#5G5E5G5]W[G#5]
|
[/]  
 
 PM----------| PM PM

E S S E S S E E E E E S S E S S E E E E E Q E E Q E
 
 |---------------------|---------------------|---------------|
 |---------------------|---------------------|---------------|
 |---------------------|---------------------|---------------|
 |---------------5-5-4-|-5-------------8-8-7-|---4--5---5--6-|
 |---------------7-7-6-|-7-------------8-8-7-|---4--5---5--6-|
 |-0-0-0-0-0-0-0-------|---0-0-0-0-0-0-6-6-5-|-0-2--3-0-3--4-|

[E5]W [G5]W [A5]H [F5B/D#]E E Q
| | | | | |
[/] [/] [/] [/] [/] [/]  
W W W
 
 |----------|----------|-------------|
 |----------|----------|-------------|
 |----------|----------|-------------|
 |----------|----------|-------------|
 |----------|----------|-------------|
 |----------|----------|-------------|

[(E5)] [Bb5] [A5] [(E5)] [Em] [B/D#Em(E5)] [Bb5] [A5]  
 
 PM----------| PM----------|

E S S E S S E E E E E S S E S S E E E E E S S E S S E E E E
 
 |---------------------|---------------------|----------------------|
 |---------------------|---------------------|----------------------|
 |---------------------|---------------------|----------------------|
 |---------------8-8-7-|---------------5-5-4-|-5-------------8-8-7--|
 |---------------8-8-7-|---------------7-7-6-|-7-------------8-8-7--|
 |-0-0-0-0-0-0-0-6-6-5-|-0-0-0-0-0-0-0-------|---0-0-0-0-0-0-6-6-5--|

[(EF#5G5(EG5] [G#5] Gt[E5]r IV[G5] [A5] [F5] [B/D#]
W W W H E E Q
| | | | | |
[/] [/] [/] [/] [/] [/] 
Gtr III
PM PM
E Q E E Q E W W W
 
 |---------------|----------|----------|-------------|
 |---------------|----------|----------|-------------|
 |---------------|----------|----------|-------------|
 |---4--5---5--6-|----------|----------|-------------|
 |---4--5---5--6-|----------|----------|-------------|
 |-0-2--3-0-3--4-|----------|----------|-------------|

[(E5)]W [Bb5] [A5] [(E5)]W [Em] [B/D#E5] H [B5]H
| |
[/] [/] 
 
 PM----------| PM----------|

E S S E S S E E E E E S S E S S E E E E W
 
 |---------------------|---------------------|-----------|
 |---------------------|---------------------|-----------|
 |---------------------|---------------------|-----------|
 |---------------8-8-7-|---------------5-5-4-|-----------|
 |---------------8-8-7-|---------------7-7-6-|-----------|
 |-0-0-0-0-0-0-0-6-6-5-|-0-0-0-0-0-0-0-------|-----------|

[G5]H [Em]Q [B/D#]Q [(E5)]W [Bb5] [A5] [(E5)]W[Em] [B/D#]
| | |
[/] [/] [/]  
 
 PM----------| PM----------|

W E S S E S S E E E E E S S E S S E E E E
 
 |------------|---------------------|---------------------|
 |------------|---------------------|---------------------|
 |------------|---------------------|---------------------|
 |------------|---------------8-8-7-|---------------5-5-4-|
 |------------|---------------8-8-7-|---------------7-7-6-|
 |------------|-0-0-0-0-0-0-0-6-6-5-|-0-0-0-0-0-0-0-------|

[Em(E5)] [BbF5] [(E5)] [Bb5] [A5] [(E5)] [Em] [B/D#] 
[5/4] [4/4]  
 
 PM--------| PM----------| PM----------|

E S S E S S E E E E E E E S S E S S E E E E E S S E S S E E E E
 
 |-------------------------|---------------------|---------------------|
 |-------------------------|---------------------|---------------------|
 |-------------------------|---------------------|---------------------|
 |-5-------------8-8-7-8-3-|---------------8-8-7-|---------------5-5-4-|
 |-7-------------8-8-7-8-3-|---------------8-8-7-|---------------7-7-6-|
 |---0-0-0-0-0-0-6-6-5-6-1-|-0-0-0-0-0-0-0-6-6-5-|-0-0-0-0-0-0-0-------|

1.
To Coda
[Em(E5)]E S S E S S E [Bb5]E E [A5]E [Bb5F5]Q Q [E5]Q Q W
 
 |---------------------|-------------|----------------------------------------------|
 |---------------------|-------------|----------------------------------------------|
 |---------------------|-3-----------|----------------------------------------------|
 |-5-------------8-8-7-|-3--3--2-----|--2-------------------------------------------|
 |-7-------------8-8-7-|-1--3--2-----|--2-------------------------------------------|
 |---0-0-0-0-0-0-6-6-5-|----1--0-----|--0-------------------------------------------|

|
| Gtr IV
| W Q Q Q Q E E S S S S S S S S S S S S
 
 |---------------------|-------------|-------12-17p12-15p12-14p12----12-17p12-15p12-|
 |---------------------|-------------|-15b17----------------------15----------------|
 |---------------------|-3-----------|----------------------------------------------|
 |---------------------|-3--3--2-----|----------------------------------------------|
 |---------------------|-1--3--2-----|----------------------------------------------|
 |---------------------|----1--0-----|----------------------------------------------|

2.
[G5] W [E5] H [F5] Q [B/D#] Q W
 
 |-------------------------------------------------|------------------------------------||--------------||
 |-------------------------------------------------|-----------------------------4-----o||--------------||
 |-------------------------------------------------|--2--------------------------4------||--------------||
 |--5----------------------------------------------|--2--------------------3-----4------||--2-----------||
 |--5----------------------------------------------|--0--------------------3-----6-----o||--2-----------||
 |--3----------------------------------------------|-----------------------1------------||--0-----------||

|
| S S S S S S S S S S S S S S S S S S S S S S E E E Q Q Q H
 
 |-14p12----12-17p12-15p12-14p12----12-17p12-15p12-|-14p12------------------------------||--------------||
 |-------15----------------------15----------------|-------14p12-14p12----------14b15--o||--------------||
 |-------------------------------------------------|-------------------14-12----14b16---||-12\----------||
 |-------------------------------------------------|-------------------------14---------||--------------||
 |-------------------------------------------------|-----------------------------------o||--------------||
 |-------------------------------------------------|------------------------------------||--------------||

Interlude
[E5] [G5] PM
W +W W +Q. E E E Q
 
 |----------|------------|----------|----------------|
 |----------|------------|----------|----------------|
 |----------|------------|----------|----------------|
 |-2--------|-(2)--------|-5--------|-(5)---5-----5--|
 |-2--------|-(2)--------|-5--------|-(5)---5-----5--|
 |-0--------|-(0)--------|-3--------|-(3)---3---3-3--|

[E5]W +W [G5]W +H [B5]E E Q
 
 |----------|------------|----------|---------------||
 |----------|------------|----------|---------------||
 |----------|------------|----------|--------4-4----||
 |-2--------|-(2)--------|-5--------|-(5)----4-2----||
 |-2--------|-(2)--------|-5--------|-(5)----2-2----||
 |-0--------|-(0)--------|-3--------|-(3)-----------||

[E5]Gtr IV[C5] [D5] [G5] [A5] [B5]
Q. E Q E E E Q E Q Q Q. E Q E E E Q E +Q Q
| | | | | | | | | | | | | | | | | | | |
/ / / x x / / / / / / / / x x / / / / /
Gtr III
 
 PM--------------------------| PM------------------------|

|-3--|
E E E E Q E E E E E E E E E E E E E E E Q E E E E E E E E Q 3x
 
 ||------------------|-----------------|-------------------|------------------||
 ||o-----------------|-----------------|-------------------|-----------------o||
 ||------------------|-----------------|-------------------|------------------||
 ||-------4-5--------|-----5-----------|--------4-5--------|-----4----4-5-7---||
 ||o-7--7-----7----7-|-7-----7-3-3-5s7-|-7--5-------7----7-|---7---7---------o||
 ||------------------|-----------------|------7------------|------------------||

[E5]Q. E Q E E [E5]Q. [G5]E Q [B5]Q [G5]W +W [BbA5]E E E E E E E E
| | | | | | | | | | | | | | | |
/ / / x x / / / / / / / / / / /
E E E E E E Q Q. E +Q Q W +W W
 
 |------------------|----------------|----------|------------|-----------------||
 |------------------|----------------|----------|------------|-----------------||
 |------------------|-------------4s=|=7--------|-(7)--------|-----------------||
 |------4-5---------|-2--------------|----------|------------|-----------------||
 |-7--7-----7-------|------2-(2)-----|----------|------------|-----------------||
 |------------------|----------------|----------|------------|-----------------||

Guitar Solo
[E5] E S S E S S E [B5] E [Bb5] E [A5] E [E5] E [B5Bb5]E E [A5] E [E5] E [B5] E [Bb5A5] E E
| | | | | | | | | | | | | | | | | |
o / / / / / / / / / / / / / / / / /
 
 PM--------------------------| PM PM

Q +E E +E +E E +E Q +E E +E E E S S
 
 |-----------------------------------------------|---------------------------------------|
 |-14b15-----(14)-14b15----(14)-(14)-14b15--(14)-|-14b15----(14)-14b15--(14)-14----------|
 |-14b16-----(14)-14b16====(14)-(14)-14b16==(14)-|-14b16====(14)-14b16==(14)-14-14-12h14-|
 |-----------------------------------------------|---------------------------------------|
 |-----------------------------------------------|---------------------------------------|
 |-----------------------------------------------|---------------------------------------|

[E5] E S S E S S E [B5] E [Bb5A5] E E [E5] E [B5] E E [Bb5] E E [A5] E E [G5] E
| | | | | | | | | | | | | | |
o / / / / / / / / / o / / / /
E S S E S S E E E S S S S S S S S S S E Q +E
 
 |----------------------------------|--------------------------------------------|
 |-------------15-12-15-12-15-12----|-12-15-12----12-15-12----12-15b17====(15)---|
 |-12-12-14-12-------------------15-|----------15----------15--------------------|
 |----------------------------------|--------------------------------------------|
 |----------------------------------|--------------------------------------------|
 |----------------------------------|--------------------------------------------|

[E5] E S S E S S E [B5Bb5]E E [A5]E [E5] E [B5] E [BbA5E5]E E E [B5] E [Bb5] E [A5] E
| | | | | | | | | | | | | | | | | |
o / / / / / / / / / o / / / o / / /
PM ~~
|--3--|
Q +Q +Q +Q E E +Q E S S S S S S S
 
 |-15b16-----(15)-----(15)---(15)r---|-15b17.5r15-(15)-----------------------------|
 |-----------------------------------|-15b17---------------17-17-20-17p15----17-15-|
 |-----------------------------------|------------------------------------16-------|
 |-----------------------------------|---------------------------------------------|
 |-----------------------------------|---------------------------------------------|
 |-----------------------------------|---------------------------------------------|

[E5] E S S E S S E [B5] E [Bb5] E [A5] E
| | | | | | | | | |
o / / / / / / / / /
 
 PM-------------------|

E S S S S S S S S S S S S S S
 
 |------------------------------------------------|
 |-17-----15-12----12-15-12h15p12----12h15p12-----|
 |----/16-------14----------------14----------14--|
 |------------------------------------------------|
 |------------------------------------------------|
 |------------------------------------------------|

[Bb5] E [A5] E E E E E E E [E]E S S E S S E [B5]E [Bb5]E [A5]E
| | | | | | | | | | | | | | |
/ / / / / o / / / / / / / / /
~~~~
 
 |-3-| |--3--| |-3-| |-3-|

S S Q S S +H S S S S S S S S S E E S S S S S E
 
 |--------------------------------|---------------------------------------|
 |-12h15p12---15-15b17-(15)-------|---------------------------------------|
 |--------------------------------|-4p2p0-4p2p==0-4p2p0-4-----4p2p0-2h4---|
 |--------------------------------|-------------------------0-----------0-|
 |--------------------------------|---------------------------------------|
 |--------------------------------|---------------------------------------|

[E5] [B5] [Bb5] [A5] [E5B5] [Bb5] [A5] 
[E]| [E]| [E]| [E]| [E]| [E]| [E]| [E]|
o / / / / / / /
PM PM
 
 |-3-| |-3-| |-3-| |-3-| |-3-| |-3-|

S S S S S S S S S S S E S S S S S S S S S
 
 |-------------------------------------------|
 |-------------------------------------------|
 |-4p2p0-4p2p0-4p2p0-2h4-0-4p2p0-4p2p0-4p2p0-|
 |-------------------------------------------|
 |-------------------------------------------|
 |-------------------------------------------|

[E5]E S S E S S E [B5]E [Bb5] E [A5] E
| | | | | | | | | |
o / / / / / / / / /
 
 PM----------------------------|
 |-3-| |--3--| |-3-| |--3--| |-3-| |-3-| |-3-| |-3-|

S S S S S S S S S S S S S S S S S S S S S S S S
 
 |---------------------------------------------------------|
 |---------------------------------------------------------|
 |-4p2p0-4p2p==0-6p4p0-6p4p==0-8p6p0-8p6p0-10p8p0-10p8p0---|
 |---------------------------------------------------------|
 |---------------------------------------------------------|
 |---------------------------------------------------------|

[E5] [B5] [Bb5] [A5] [G5] [F5] 
[E]| [E]| [E]| [E]| [E] [E]| [E] [E]|
o / / / / /
 
 |-3--| |-3--| |-3--| |-3--|

S S S S S S S S S S S S Q Q
 
 |-------------------------------------------|
 |-------------------------------------------|
 |-12p10p0-12p10p0-12p10p0-12p10p0-14\-------|
 |-------------------------------------------|
 |-------------------------------------------|
 |-------------------------------------------|

[E5] E S S E S S E [B5]E [Bb5] E [A5]E
| | | | | | | | | |
o / / / / / / / / /
 
 PM-------------------|
 |---3---| |---3---| |---3---|

E E E S S S E E E E E E
 
 |-12-15---14-12h14p==12----12-----------------|
 |-----------------------15------15-12h14p==12-|
 |---------------------------------------------|
 |---------------------------------------------|
 |---------------------------------------------|
 |---------------------------------------------|

[E5] [B5] [Bb5A5] [E5] [B5] [Bb5A5]  
[E]| [E]| [E]| [E]| [E]| [E]| [E]| [E]|
o / / / o / / /
 
 PM-------
 |---3---|

[E] [E] [E] [E] [E] [E] [E] [E] [E]  
 
 |------------------------------|
 |-14p12------------------------|
 |---------14-12----------------|
 |---------------14-12----------|
 |---------------------14-13-12-|
 |------------------------------|

[E5] E S S E S S E [B5] E [Bb5A5] E E [Bb5A5] E E E E E E E E
| | | | | | | | | | | | | | |
o / / / / / / / / / / / / / /
 
 ------------------------| ~~~~~~~~~~~~~~~

E E E E E E E E E E E E +Q +Q
 
 |--------------------------|------------------------------|
 |--------------------------|------------------------------|
 |----------------9-12------|-12-14-[12]-14-(14)---(14)\---|
 |---------9-12--------12-9-|------------------------------|
 |-10-11--------------------|------------------------------|
 |--------------------------|------------------------------|

[E5] W [G5]W [A5]W
| | |
[/] [/] [/] 
~~~~~
 
 |-3-| |--3--| |-3-|

a E E E Q. E E E E E E S S S E E E Q Q Q Q Q Q
 
 |------------------------|---------------------|-----------------|
 |-------7-10b12---[10]-8-|-7---7-8-7h8p7-------|-----------------|
 |-----7------------------|---9-----------9-7-6-|-7-7b9-7-6-4-7---|
 |-7s9--------------------|---------------------|-----------------|
 |------------------------|---------------------|-----------------|
 |------------------------|---------------------|-----------------|

[F#5]W [E5] W
| |
[/] [/]  
~~~~ ~~~~~~
 
 |-3-| |--3--|

Q Q Q Q +Q E E E E +Q E E E
 
 |-------------------|---------------------------------|
 |-------------------|--------12-15b17==(15)--15p12----|
 |-6-----------------|-----12-----------------------14-|
 |---7-6-7b9===(7)---|-/14-----------------------------|
 |-------------------|---------------------------------|
 |-------------------|---------------------------------|

[G5] W
|
[/]  
~~~~~~ ~~~~~~~~
E Q S S S E. +Q
 
 |----15b17===15p12-15p12--(12)---|
 |-12-----------------------------|
 |--------------------------------|
 |--------------------------------|
 |--------------------------------|
 |--------------------------------|

[A5] Q Q H H Q [F#5]Q
| |
[/] [/] 
 
 |--3--| |--3--| |---3----| |--3--|

S S S S E E E S S S S E E E E E S S S S S E Q Q
 
 |-20p15-20p15----------------14-14----------|-------------------------------||
 |----------------------10s12-------12s10----|-10----------------------------||
 |-------------17p16p14-------------------12-|----12-11h12-11h12p11p9-9\-----||
 |-------------------------------------------|-------------------------------||
 |-------------------------------------------|-------------------------------||
 |-------------------------------------------|-------------------------------||

D.S. al Coda
[F5] [Bb5] [B5] [Bb5] [B5] [Bb5] [B5] [F#5] [F5] 7/8[F5] [B/D#]
PM|
E E E E E E E E E E E E E E Q 4x Q Q H Q E E E Q
 
 ||------------------|-----------------||------------|-------------||
 ||o-----------------|----------------o||------------|-------------||
 ||------3---4---3---|-4---3---4-------||------------|-------------||
 ||--3---3---4---3---|-4---3---4---4---||-3----------|------3-3-4--||
 ||o-3---1---2---1---|-2---1---2---4--o||-3----------|------3-3-6--||
 ||--1---------------|-------------2---||-1----------|------1-1----||

&
[Bb5F5] [(E5)] [Bb5] [A5] [(E5)] [Em] [B/D#Em(E5)] [Bb5] [A5BbF5] 
[2/4] Gtr IV[4/4] [5/4]
Q Q W W W
| |
[/] [/]  
Gtr III
W E S S E S S E E E E E S S E S S E E E E E S S E S S E E E E E E
 
 |-------|---------------------|---------------------|--------------------------|
 |-------|---------------------|---------------------|--------------------------|
 |-------|---------------------|---------------------|--------------------------|
 |-------|---------------8-8-7-|---------------5-5-4-|-5-------------8-8-7-8-3--|
 |-------|---------------8-8-7-|---------------7-7-6-|-7-------------8-8-7-8-3--|
 |-------|-0-0-0-0-0-0-0-6-6-5-|-0-0-0-0-0-0-0-------|---0-0-0-0-0-0-6-6-5-6-1--|

[(E5)] [Bb5] [A5] [(E5)] [Em] [B/D#Em(E5)] [Bb5] [A5] 
[4/4] E S S E S S E E E E E S S E S S E E E E E S S E S S E E E E
 
 |---------------------|---------------------|---------------------|
 |---------------------|---------------------|---------------------|
 |---------------------|---------------------|---------------------|
 |---------------8-8-7-|---------------5-5-4-|-5-------------8-8-7-|
 |---------------8-8-7-|---------------7-7-6-|-7-------------8-8-7-|
 |-0-0-0-0-0-0-0-6-6-5-|-0-0-0-0-0-0-0-------|---0-0-0-0-0-0-6-6-5-|

Outro
Q Q Q Q [F5]E E [Bb5]E E [B5]E E [Bb5]E E [B5]E E [Bb5]E E [B5]E E [F#5]Q 7x [F5]E E [Bb5]E E [B5]E E [Bb5]E E
 
 |-------------||------------------|-----------------||-----------------|
 |-------------||o-----------------|----------------o||-----------------|
 |-------------||------3---4---3---|-4---3---4-------||-----3---4---3---|
 |-8--3--2-----||--3---3---4---3---|-4---3---4---4---||-3---3---4---3---|
 |-8--3--2-----||o-3---1---2---1---|-2---1---2---4--o||-3---1---2---1---|
 |-6--1--0-----||--1---------------|-------------2---||-1---------------|

[B5]W +W [F#F5]E E E E E E E E [E5]Q Q H
 
 |----------|------------|-----------------|------------*|
 |----------|------------|-----------------|------------*|
 |-4--------|-(4)--------|-----------------|------------*|
 |-4--------|-(4)--------|-4-3---3---3---3-|-2----------*|
 |-2--------|-(2)--------|-4-3---3---3---3-|-2----------*|
 |----------|------------|-2-1---1---1---1-|-0----------*|

Duration Legend
 
 ---------------
 W - whole; H - half; Q - quarter; E - 8th; S - 16th; T - 32nd; X - 64th; a - acciaccatura

+ - note tied to previous; . - note dotted; .. - note double dotted
Uncapitalized letters represent notes that are staccato (1/2 duration)
Irregular groupings are notated above the duration line
Duration letters will always appear directly above the note/fret number it represents the
duration for. Duration letters with no fret number below them represent rests. Multi-
bar rests are notated in the form Wxn, where n is the number of bars to rest for. Low
melody durations appear below the staff
Tablature Legend
 
 ----------------

h - hammer-on
p - pull-off
b - bend
pb - pre-bend
r - bend release (if no number after the r, then release immediately)
/\ - slide into or out of (from/to "nowhere")
s - legato slide
S - shift slide
<n> - natural harmonic
(n) - artificial harmonic
n(n) - tapped harmonic
~ - vibrato
tr - trill
T - tap
TP - trem. picking
PM - palm muting
\n/ - tremolo bar dip; n = amount to dip
\n - tremolo bar down
n/ - tremolo bar up
/n\ - tremolo bar inverted dip
= - hold bend; also acts as connecting device for hammers/pulls
<> - volume swell (louder/softer)
x - on rhythm slash represents muted slash
o - on rhythm slash represents single note slash
Misc Legend
 
 -----------

| - bar
|| - double bar
||o - repeat start
o|| - repeat end
*| - double bar (ending)
: - bar (freetime)
$ - Segno
& - Coda
Tempo markers - <E/E./Q/Q./H/H.> = BPM(8/16=s8/s16), where s8 = swing 8ths, s16 = swing 16ths
***************************************************************************************
***************************************************************************************

Important: The song above is NOT stored on the Chordie server. The original song is hosted at www.azchords.com. Chordie works as a search engine and provides on-the-fly formatting. Chordie does not index songs against artists'/composers' will. To remove this song please click here.

Text color:
Chord color:
Chord grids: 
Font size:    
Page size: 

A5 B5 Bb5 C5 D/F# D5 E E5 Em F#5 F#m7 F5 Fmaj7 G#5 G5
Rate #1 of 10 versions

Jango Player

Login - add to songbook

SHARE PAGE  



You need to log in to post comments