Guitar Tabs, Chords and Lyrics
Major upgrade!! After one year development the new version of Chordie is now online! Please give feedback.


Die, Die My Darling   Metallica

 
 eb------------------------------
 Bb--4--4--4--4--4--4--4--4------
 Gb--4--4--4--4--4--4--4--4--4--3
 Db--4--4--4--4--4--4--4--4--5--4
 Ab--2--2--2--2--2--2--2--2--5--4
 Eb--------------------------3--2

 


 "Die, die, die my darlin..."


 


 2a) James


 

 
 eb-----------------------------------------------------------
 Bb-------4--4--4--4--4--4--4--4------------------------------
 Gb--1----4--4--4--4--4--4--4--4----1-----4------------------4
 Db--2----4--4--4--4--4--4--4--4----2-----5------------------5
 Ab--2----2--2--2--2--2--2--2--2----2-----5------------------5
 Eb--0------------------------------0-----3--3-3-3-3-3-3-3-3-3
 "Oh, I'll be seeing you again..." pm-------------|

 


 


 [2b)]  

 
 eb-----------------------------------------------------------
 Bb------4----------------------------------------------------
 Gb--1---4--4--4--4--4--4-4/6\4-----1-----4------------------4
 Db--2---4--4--4--4--4--------------2-----5------------------5
 Ab--2---2--2--2--2--2--2-2/4\2-----2-----5------------------5
 Eb--0------------------------------0-----3--3-3-3-3-3-3-3-3-3

 


 


 [3)]  

 
 eb--------------------------------------
 Bb--4--4--4--4--4--4--4--4-------7--6--4
 Gb--4--4--4--4--4--4--4--4--6----7--6--4
 Db--4--4--4--4--4--4--4--4--5----7--6--4
 Ab--2--2--2--2--2--2--2--2--5----5--4--2
 Eb--------------------------3-----------

 


 "Don't cry to me oh baby..."


 


 [4a)] [4b)]  

 
 eb---------------------- --14
 Bb--12-12-12-12-12-12-12 ----
 Gb---------------------- ----
 Db---------------------- ----
 Ab---------------------- ----
 Eb---------------------- ----


Important: The song above is NOT stored on the Chordie server. The original song is hosted at www.azchords.com. Chordie works as a search engine and provides on-the-fly formatting. Chordie does not index songs against artists'/composers' will. To remove this song please click here.

This song is displayed as text-only. Transposing and tuning is only available for chordpro-songs.
Rate #1 of 5 versions

Login - add to songbook

SHARE PAGE  




You need to log in to post comments