Guitar Tabs, Chords and Lyrics
Server problems seems to be fixed. Chordie has been experiencing problems with songs disappearing. These issues now seems to be fixed, but still verifying the fix. If you find anything strange, please email admin@chordie.com.


Electric Feel  MGMT

[Intro] 
[(Bass)]  
 
 e|---------------------------------------------------------------------------|
 B|---------------------------------------------------------------------------|
 G|---------------------------------------------------------------------------|
 D|---------------------------------------------------------------------------|
 A|---------------------------------------------------------------------------|
 E|--10--10--5--6--8--10--8--10--5--6-----------------------------------------|

Repeat through out
[Intro] 
(Synth)
 
 e|--------1--3--6--1--3--------1---------------------------------------------|
 B|--4--4-----------------4--4----1--4----------------------------------------|
 G|---------------------------------------------------------------------------|
 D|---------------------------------------------------------------------------|
 A|---------------------------------------------------------------------------|
 E|---------------------------------------------------------------------------|

[Bridge Lick] 
 
 e|0--3------------------------------------------------------------------------|
 B|1--0------------------------------------------------------------------------|
 G|2--0-----0------0-----------------------------------------------------------|
 D|2--0--0h2----0h2---------0--------------------------------------------------|
 A|0--2----------------0h2-----------------------------------------------------|
 E|x--3------------------------3-----------------------------------------------|

[Intro] 
Am \\ Em \ Fmaj7 \
G \/\/ Em \ Fmaj7 \
[Verse] 
All[Am] along the w[Em]estern [Fmaj7]front
Peo[G]ple line up [Em]to rece[Fmaj7]ive
She[Am] got the pow[Em]er in h[Fmaj7]er hand
To [G]shock you li[Em]ke you [Fmaj7]won't believe
Saw[Am] her in the [Em]amazon[Fmaj7]
Wit[G]h the voltag[Em]e runni[Fmaj7]ng through her skin
Sta[Am]nding there [Em]with no[Fmaj7]thing on
She[G] gonna teach[Em] me how[Fmaj7] to swim
[Cborus] 
I s[Am]aid ooh girl[Em] [Fmaj7]
Sho[G]ck me like a[Em]n elect[Fmaj7]ric eel
Bab[Am]y girl[Em] [Fmaj7]
You[G] turn me on [Em]with yo[Fmaj7]ur electric feel
I s[Am]aid ooh girl[Em] [Fmaj7]
Sho[G]ck me like a[Em]n elect[Fmaj7]ric eel
Bab[Am]y girl[Em] [Fmaj7]
Tur[G]n me on with[Em] your e[Fmaj7]lectric feel
[Verse] 
All[Am] along the e[Em]astern [Fmaj7]shore
Put[G] your circui[Em]ts in t[Fmaj7]he sea
Thi[Am]s is what th[Em]e world[Fmaj7] is for
Mak[G]ing electric[Em]ity[Fmaj7]
You[Am] can feel it[Em] in you[Fmaj7]r mind
Oh [G]you can do i[Em]t all t[Fmaj7]he time
Plu[Am]g it in and [Em]change [Fmaj7]the world
You[G] are my elec[Em]tric gi[Fmaj7]rl
[Cborus] 
Sai[Am]d ooh girl[Em] [Fmaj7]
Sho[G]ck me like a[Em]n elect[Fmaj7]ric eel
Bab[Am]y girl[Em] [Fmaj7]
Tur[G]n me on with[Em] your e[Fmaj7]lectric feel
I s[Am]aid ooh girl[Em] [Fmaj7]
Sho[G]ck me like a[Em]n elect[Fmaj7]ric eel
Bab[Am]y girl[Em] [Fmaj7]
Tur[G]n me on with[Em] your e[Fmaj7]lectric feel
[Bridge] 
[Syntb] 
Do what you feel now
Electric feel now
Do what you feel now
Electric feel now
Do what you feel now
Electric feel now
Do what you feel now
Electric feel now
Do what you feel now
Electric feel now

Important: The song above is NOT stored on the Chordie server. The original song is hosted at www.azchords.com. Chordie works as a search engine and provides on-the-fly formatting. Chordie does not index songs against artists'/composers' will. To remove this song please click here.

Text color:
Chord color:
Chord grids: 
Font size:    
Page size: 

Am Em Fmaj7 G
Rate #1 of 3 versions

Jango Player

Login - add to songbook

SHARE PAGE  




You need to log in to post comments