Guitar Tabs, Chords and Lyrics
Major upgrade!! After one year development the new version of Chordie is now online! Please give feedback.


Dance Craze   Millencolin

 
 e----------------------------------------------------------|
 B----------------------------------------------------------|
 G--2--2-----------------------------------------5-----4--4-|
 D--2--2-----------3--3-----------5--5-----------5-----4--4-|
 A--0--0--3-2-0----3--3--3-2-0----5--5--3-2-0----3--0--2--2-|
 E-----------------1--1-----------3--3----------------------|

 


 


 Verse(Part 1):


 

 
 e----------------------------------------|
 B----------------------------------------|
 G--2--2-----------------------5-----4--4-|
 D--2--2-----3--3-----5--5-----5-----4--4-|
 A--0--0-----3--3-----5--5-----3--0--2--2-|
 E-----------1--1-----3--3----------------|

 


 


 Verse(Part 2):


 

 
 e----------------------------------------------------------|
 B----------------------------------------------------------|
 G--2--2-2-2-2-----------------------------------5-----4--4-|
 D--2--2-2-2-2-----3--3-3-3-3-----5--5-5-5-5-----5-----4--4-|
 A--0--0-0-0-0-----3--3-3-3-3-----5--5-5-5-5-----3--0--2--2-|
 E-----------------1--1-1-1-1-----3--3-3-3-3----------------|
 [--P.M--] [--P.M--]

 


 


 Bridge(Part 1):


 

 
 e-------------------------------------------------------------|
 B-------------------------------------------------------------|
 G--2--2--2-----------------5--5--5----------------------------|
 D--2--2--2-----3--3--3-----5--5--5-----5--5--5--5--5--5--5--5-|
 A--0--0--0-----3--3--3-----3--3--3-----5--5--5--5--5--5--5--5-|
 E--------------1--1--1-----------------3--3--3--3--3--3--3--3-|

 


 


 Bridge(Part 2):


 

 
 e----------------------------------------------------------------------------|
 B----------------------------------------------------------------------------|
 G--2-2-2-2-2-2-2-2------------------------5-5-5-5-5-5-5-5--------------------|
 D--2-2-2-2-2-2-2-2----3-3-3-3-3-3-3-3-----5-5-5-5-5-5-5-5----5-5-5-5-5-5-5-5-|
 A--0-0-0-0-0-0-0-0----3-3-3-3-3-3-3-3-----3-3-3-3-3-3-3-3----5-5-5-5-5-5-5-5-|
 E---------------------1-1-1-1-1-1-1-1------------------------3-3-3-3-3-3-3-3-|

 


 


 


 Solo(Part 1):


 

 
 e-------------------------------------------------------------12-12-13-12-|
 B--------------------------------------------------------10-8-------------|
 G----------------------------------9-9-10-9-7-5-5-7-9-10------------------|
 D------------------------------7-5----------------------------------------|
 A--5/7-5-7-----7-8-7-5-3-5-7-8--------------------------------------------|
 E----------5-8------------------------------------------------------------|

 


 


 Solo(Part 2):


 

 
 e--------------15----------------------------------|
 B--15-13-13-12----12/8-8-10-10-8-------------12/13-|
 G--------------------------------5-5-4-5-7-5-------|
 D--------------------------------------------------|
 A--------------------------------------------------|
 E--------------------------------------------------|


Important: The song above is NOT stored on the Chordie server. The original song is hosted at www.azchords.com. Chordie works as a search engine and provides on-the-fly formatting. Chordie does not index songs against artists'/composers' will. To remove this song please click here.

This song is displayed as text-only. Transposing and tuning is only available for chordpro-songs.
Rate #1 of 1 versions

Jango Player

Login - add to songbook

SHARE PAGE  



You need to log in to post comments