Guitar Tabs, Chords and Lyrics
Server problems seems to be fixed. Chordie has been experiencing problems with songs disappearing. These issues now seems to be fixed, but still verifying the fix. If you find anything strange, please email admin@chordie.com.


Into the Mind   Miracle of Sound

 
 D|---------------------------------------------------------------------------|
 A|---------------------------------------------------------------------------|
 F|---------------------------------------------------------------------------|
 C|---------------------------------------------------------------------------|
 G|---------------------------------------------------------------------------|
 C|-0-0-0-0-0-0-0-0-0-0-0-0-0-0-0-0-8-8-8-8-8-8-8-8-6-6-6-6-6-6-6-6-----------|

 


 PM * * * * * * * * * * * * * * * * * * * * * * * * * * * * * * * *


 


 

 
 D|----------------------------------------------------------------------------|
 A|----------------------------------------------------------------------------|
 F|----------------------------------------------------------------------------|
 C|----------------------------------------------------------------------------|
 G|----------------------------------------------------------------------------|
 C|-0-0-0-0-0-0-0-0-0-0-0-0-0-0-0-0-/10-10-10-10-10-10-10-10-6-6-6-6-6-6-6-6---|

 


 PM * * * * * * * * * * * * * * * * * * * * * * * * * * * * * * * *


 


 

 
 D|---------------------------------------------------------------------------|
 A|---------------------------------------------------------------------------|
 F|---------------------------------------------------------------------------|
 C|---------------------------------------------------------------------------|
 G|---------------------------------------------------------------------------|
 C|-0-0-0-0-0-0-0-1-0-0-0-0-0-0-0-0-8-8-8-8-8-8-8-8-6-6-6-6-6-6-6-6-----------|
 D|---------------------------------------------------------------------------|
 A|---------------------------------------------------------------------------|
 F|---------------------------------------------------------------------------|
 C|---------------------------------------------------------------------------|
 G|---------------------------------------------------------------------------|
 C|-0-0-0-0-0-0-0-1-0-0-0-0-0-0-0-0-10-10-10-10-10-10-10-10-6-6-6-6-6-6-6-6---|

 


 


 Amid the cracks in mirrors


 The glow is growing dimmer


 Ascend from putrid rivers


 Stumbling blind...


 


 Chorus 1


 


 And When The Walls Are Closing..


 

 
 D|---------------------------------------------------------------------------|
 A|---------------------------------------------------------------------------|
 F|---------------------------------------------------------------------------|
 C|---------------------------------------------------------------------------|
 G|---------------------------------------------------------------------------|
 C|-0-0-0-0-0-0-0-0-0-0-0-0-0-0-0-0-8-8-8-8-8-8-8-8-6-6-6-6-6-6-6-6-----------|

 


 PM * * * * * * * * * * * * * * * * * * * * * * * * * * * * * * * *


 


 Tumbling Deeper Down Into The Mind


 

 
 D|---------------------------------------------------------------------------|
 A|---------------------------------------------------------------------------|
 F|---------------------------------------------------------------------------|
 C|---------------------------------------------------------------------------|
 G|---------------------------------------------------------------------------|
 C|-0-0-0-0-0-0-0-0-0-0-0-0-0-0-0-0-10-10-10-10-10-10-10-10-6-6-6-6-6-6-6-6---|

 


 PM * * * * * * * * * * * * * * * * * * * * * * * * * * * * * * * *


 


 When intuition fails you..


 

 
 D|---------------------------------------------------------------------------|
 A|---------------------------------------------------------------------------|
 F|---------------------------------------------------------------------------|
 C|---------------------------------------------------------------------------|
 G|---------------------------------------------------------------------------|
 C|-0-0-0-0-0-0-0-1-0-0-0-0-0-0-0-0-8-8-8-8-8-8-8-8-6-6-6-6-6-6-6-6-----------|

 


 


 Tumbling deeper down into the mind


 

 
 D|---------------------------------------------------------------------------|
 A|---------------------------------------------------------------------------|
 F|---------------------------------------------------------------------------|
 C|---------------------------------------------------------------------------|
 G|---------------------------------------------------------------------------|
 C|-0-0-0-0-0-0-0-0-0-0-0-0-0-0-0-0-10-10-10-10-10-10-10-10-6-6-6-6-6-6-6-6---|

 


 


 The keepers of creation


 Discharge my automation


 Deprived of all sensation


 Stumbling blind...


 


 Chorus 2


 


 And When The Walls Are Closing..


 

 
 D|---------------------------------------------------------------------------|
 A|---------------------------------------------------------------------------|
 F|---------------------------------------------------------------------------|
 C|---------------------------------------------------------------------------|
 G|---------------------------------------------------------------------------|
 C|-0-0-0-0-0-0-0-0-0-0-0-0-0-0-0-0-8-8-8-8-8-8-8-8-6-6-6-6-6-6-6-6-----------|

 


 PM * * * * * * * * * * * * * * * * * * * * * * * * * * * * * * * *


 


 Tumbling Deeper Down Into The Mind


 

 
 D|---------------------------------------------------------------------------|
 A|---------------------------------------------------------------------------|
 F|---------------------------------------------------------------------------|
 C|---------------------------------------------------------------------------|
 G|---------------------------------------------------------------------------|
 C|-0-0-0-0-0-0-0-0-0-0-0-0-0-0-0-0-10-10-10-10-10-10-10-10-6-6-6-6-6-6-6-6---|

 


 PM * * * * * * * * * * * * * * * * * * * * * * * * * * * * * * * *


 


 When intuition fails you..


 

 
 D|---------------------------------------------------------------------------|
 A|---------------------------------------------------------------------------|
 F|---------------------------------------------------------------------------|
 C|---------------------------------------------------------------------------|
 G|---------------------------------------------------------------------------|
 C|-0-0-0-0-0-0-0-1-0-0-0-0-0-0-0-0-8-8-8-8-8-8-8-8-6-6-6-6-6-6-6-6-----------|

 


 


 Tumbling deeper down into the mind


 

 
 D|---------------------------------------------------------------------------|
 A|---------------------------------------------------------------------------|
 F|---------------------------------------------------------------------------|
 C|---------------------------------------------------------------------------|
 G|---------------------------------------------------------------------------|
 C|-0-0-0-0-0-0-0-1-0-0-0-0-0-0-0-0-10-10-10-10-10-10-10-10-6-6-6-6-6-6-6-6---|

 


 


 I'm over here...


 Amid the cracks in mirrors..


 I'm over here...


 


 Solo (With Delay/Chorus)


 

 
 D|--------------------18-(12---(12---(12---(12---(12--------------------------------------------|
 A|-tremolo picking---------15)---15)---15)---15)---15-15)---[Let 12 and 15 ring at the same time|
 F|----13b14b13----------------------------------------------------------------------------------|
 C|----------------------------------------------------------------------------------------------|
 G|----------------------------------------------------------------------------------------------|
 C|----------------------------------------------------------------------------------------------|
 D|----------------------------------------------------------------------------------------------|
 A|-----------------------15---------------------------------------------------------------------|
 F|-----------15-14-12-14---------------15-14-12----12)------[Let 13 and 12 ring at the same time|
 C|--12-13-12------------------12-13-12----------(13---------------------------------------------|
 G|----------------------------------------------------------------------------------------------|
 C|----------------------------------------------------------------------------------------------|
 D|----------------------------------------------------------------------------------------------|
 A|-----------------------15---------------------------------------------------------------------|
 F|-----------15-14-12-14---------------15-14-12-------------------------------------------------|
 C|--12-13-12------------------12-13-12----------13-----12p--------------------------------------|
 G|----------------------------------------------------------------------------------------------|
 C|----------------------------------------------------------------------------------------------|

 


 


 


 Solo Rhythm


 

 
 D|----------------------------------------------------------------------------------------------|
 A|----------------------------------------------------------------------------------------------|
 F|----------------------------------------------------------------------------------------------|
 C|-----------------0-0-0-0-1/12\0---------------------------------------------------------------|
 G|---------0-0-0-0-0-0-0-0-1/12\0---------------------------------------------------------------|
 C|-0-0-0-0-0-0-0-0-0-0-0-0-1/12\0-0-0-0-0-0-0-0-0-0-0-0-0-0-0-0-8-8-8-8-8-8-8-8-6-6-6-6-6-6-6-6-|

 


 PM * * * * * * * * * * * *


 


 

 
 D|---------------------------------------------------------------------------|
 A|---------------------------------------------------------------------------|
 F|---------------------------------------------------------------------------|
 C|---------------------------------------------------------------------------|
 G|---------------------------------------------------------------------------|
 C|-0-0-0-0-0-0-0-0-0-0-0-0-0-0-0-0-10-10-10-10-10-10-10-10-6-6-6-6-6-6-6-6---|
 D|---------------------------------------------------------------------------|
 A|---------------------------------------------------------------------------|
 F|---------------------------------------------------------------------------|
 C|---------------------------------------------------------------------------|
 G|---------------------------------------------------------------------------|
 C|-0-0-0-0-0-0-0-1-0-0-0-0-0-0-0-0-8-8-8-8-8-8-8-8-6-6-6-6-6-6-6-6-----------|
 D|---------------------------------------------------------------------------|
 A|---------------------------------------------------------------------------|
 F|---------------------------------------------------------------------------|
 C|---------------------------------------------------------------------------|
 G|---------------------------------------------------------------------------|
 C|-0-0-0-0-0-0-0-0-0-0-0-0-0-0-0-0-10-10-10-10-10-10-10-10-6-6-6-6-6-6-6-6---|

 


 


 Chorus 3


 And when the walls are closing...


 

 
 D|---------------------------------------------------------------------------|
 A|---------------------------------------------------------------------------|
 F|---------------------------------------------------------------------------|
 C|---------------------------------------------------------------------------|
 G|-0-0-0-0-0-0-0-0-0-0-0-0-0-0-0-0-8-8-8-8-8-8-8-8-6-6-6-6-6-6-6-6-----------|
 C|-0-0-0-0-0-0-0-0-0-0-0-0-0-0-0-0-8-8-8-8-8-8-8-8-6-6-6-6-6-6-6-6-----------|

 


 


 Tumbling deeper down into the mind


 

 
 D|---------------------------------------------------------------------------|
 A|---------------------------------------------------------------------------|
 F|---------------------------------------------------------------------------|
 C|---------------------------------------------------------------------------|
 G|-0-0-0-0-0-0-0-0-0-0-0-0-0-0-0-0-10-10-10-10-10-10-10-10-6-6-6-6-6-6-6-6---|
 C|-0-0-0-0-0-0-0-0-0-0-0-0-0-0-0-0-10-10-10-10-10-10-10-10-6-6-6-6-6-6-6-6---|

 


 


 When intuition fails you


 

 
 D|---------------------------------------------------------------------------|
 A|---------------------------------------------------------------------------|
 F|---------------------------------------------------------------------------|
 C|---------------------------------------------------------------------------|
 G|-0-0-0-0-0-0-0-1-0-0-0-0-0-0-0-0-8-8-8-8-8-8-8-8-6-6-6-6-6-6-6-6-----------|
 C|-0-0-0-0-0-0-0-1-0-0-0-0-0-0-0-0-8-8-8-8-8-8-8-8-6-6-6-6-6-6-6-6-----------|

 


 


 Tumbling deeper down into the mind


 

 
 D|---------------------------------------------------------------------------|
 A|---------------------------------------------------------------------------|
 F|---------------------------------------------------------------------------|
 C|---------------------------------------------------------------------------|
 G|-0-0-0-0-0-0-0-1-0-0-0-0-0-0-0-0-10-10-10-10-10-10-10-10-6-6-6-6-6-6-6-6---|
 C|-0-0-0-0-0-0-0-1-0-0-0-0-0-0-0-0-10-10-10-10-10-10-10-10-6-6-6-6-6-6-6-6---|

 


 


 Outro (Same as Chorus 3)


 


 Deeper into the mind


 

 
 D|---------------------------------------------------------------------------|
 A|---------------------------------------------------------------------------|
 F|---------------------------------------------------------------------------|
 C|---------------------------------------------------------------------------|
 G|-0-0-0-0-0-0-0-0-0-0-0-0-0-0-0-0-8-8-8-8-8-8-8-8-6-6-6-6-6-6-6-6-----------|
 C|-0-0-0-0-0-0-0-0-0-0-0-0-0-0-0-0-8-8-8-8-8-8-8-8-6-6-6-6-6-6-6-6-----------|

 


 


 Sleep in the deprivation


 

 
 D|---------------------------------------------------------------------------|
 A|---------------------------------------------------------------------------|
 F|---------------------------------------------------------------------------|
 C|---------------------------------------------------------------------------|
 G|-0-0-0-0-0-0-0-0-0-0-0-0-0-0-0-0-10-10-10-10-10-10-10-10-6-6-6-6-6-6-6-6---|
 C|-0-0-0-0-0-0-0-0-0-0-0-0-0-0-0-0-10-10-10-10-10-10-10-10-6-6-6-6-6-6-6-6---|

 


 Deeper into the mind


 

 
 D|---------------------------------------------------------------------------|
 A|---------------------------------------------------------------------------|
 F|---------------------------------------------------------------------------|
 C|---------------------------------------------------------------------------|
 G|-0-0-0-0-0-0-0-1-0-0-0-0-0-0-0-0-8-8-8-8-8-8-8-8-6-6-6-6-6-6-6-6-----------|
 C|-0-0-0-0-0-0-0-1-0-0-0-0-0-0-0-0-8-8-8-8-8-8-8-8-6-6-6-6-6-6-6-6-----------|

 


 


 Spit and exhale


 

 
 D|--------------------------------------------------------------------------------------|
 A|--------------------------------------------------------------------------------------|
 F|--------------------------------------------------------------------------------------|
 C|-------------------------------------------------------------------------0------------|
 G|-0-0-0-0-0-0-0-1-0-0-0-0-0-0-0-0-10-10-10-10-10-10-10-10-6-6-6-6-6-6-6-6-0- Let Ring -|
 C|-0-0-0-0-0-0-0-1-0-0-0-0-0-0-0-0-10-10-10-10-10-10-10-10-6-6-6-6-6-6-6-6-0------------|


Important: The song above is NOT stored on the Chordie server. The original song is hosted at www.azchords.com. Chordie works as a search engine and provides on-the-fly formatting. Chordie does not index songs against artists'/composers' will. To remove this song please click here.

This song is displayed as text-only. Transposing and tuning is only available for chordpro-songs.
Rate #1 of 1 versions

Jango Player

Login - add to songbook

SHARE PAGE  



You need to log in to post comments