Guitar Tabs, Chords and Lyrics
Major upgrade!! After one year development the new version of Chordie is now online! Please give feedback.


Archipelago  Mirah

So I made Archipelago: THE VERSION FOR DUMMIES. It's step by freaking step,
because really it's just the same thing over and over, but I tabbed the whole
thing out with the lyrics and everything so that it's straightforward and what
not. A lot of copying and pasting, I might add. Anyway, it's the whole thing, so enjoy!!
[G] [C] [D] [C]  
 
 E|--------------------------2-------------------|
 B|----0----------1------------3---------1-------|
 F|------0----------0------------0---------0-----|
 D|--------0----------0----0-----------------0---|
 A|-------------3----------------------3---------|
 E|--3-------------------------------------------|
 E|--------------------------2-------------------|
 B|----0----------1------------3---------1-------|
 F|------0----------0------------0---------0-----|
 D|--------0----------0----0-----------------0---|
 A|-------------3----------------------3---------|
 E|--3-------------------------------------------|
 E|--------------------------2-------------------|
 B|----0----------1------------3---------1-------|
 F|------0----------0------------0---------0-----|
 D|--------0----------0----0-----------------0---|
 A|-------------3----------------------3---------|
 E|--3-------------------------------------------|

I‚??m in the archipelago and I‚??m waiting to
 
 E|--------------------------2-------------------|
 B|----0----------1------------3---------1-------|
 F|------0----------0------------0---------0-----|
 D|--------0----------0----0-----------------0---|
 A|-------------3----------------------3---------|
 E|--3-------------------------------------------|

Arrive
 
 E|--------------------------2-------------------|
 B|----0----------1------------3---------1-------|
 F|------0----------0------------0---------0-----|
 D|--------0----------0----0-----------------0---|
 A|-------------3----------------------3---------|
 E|--3-------------------------------------------|

I‚??m in the archipelago and I know I‚??m still
 
 E|--------------------------2-------------------|
 B|----0----------1------------3---------1-------|
 F|------0----------0------------0---------0-----|
 D|--------0----------0----0-----------------0---|
 A|-------------3----------------------3---------|
 E|--3-------------------------------------------|

Alive
 
 E|--------------------------2-------------------|
 B|----0----------1------------3---------1-------|
 F|------0----------0------------0---------0-----|
 D|--------0----------0----0-----------------0---|
 A|-------------3----------------------3---------|
 E|--3-------------------------------------------|

You finally told me what you had been thinking
 
 E|--------------------------2-------------------|
 B|----0----------1------------3---------1-------|
 F|------0----------0------------0---------0-----|
 D|--------0----------0----0-----------------0---|
 A|-------------3----------------------3---------|
 E|--3-------------------------------------------|

For so long
 
 E|--------------------------2-------------------|
 B|----0----------1------------3---------1-------|
 F|------0----------0------------0---------0-----|
 D|--------0----------0----0-----------------0---|
 A|-------------3----------------------3---------|
 E|--3-------------------------------------------|

And it breaks my heart wide open but I know that
 
 E|--------------------------2-------------------|
 B|----0----------1------------3---------1-------|
 F|------0----------0------------0---------0-----|
 D|--------0----------0----0-----------------0---|
 A|-------------3----------------------3---------|
 E|--3-------------------------------------------|

I‚??ll be stronger next time So goodbye
 
 E|--------------------------2-------------------|
 B|----0----------1------------3---------1-------|
 F|------0----------0------------0---------0-----|
 D|--------0----------0----0-----------------0---|
 A|-------------3----------------------3---------|
 E|--3-------------------------------------------|

My love I‚??ll miss it
 
 E|--------------------------2-------------------|
 B|----0----------1------------3---------1-------|
 F|------0----------0------------0---------0-----|
 D|--------0----------0----0-----------------0---|
 A|-------------3----------------------3---------|
 E|--3-------------------------------------------|

When it‚??s gone
 
 E|--------------------------2-------------------|
 B|----0----------1------------3---------1-------|
 F|------0----------0------------0---------0-----|
 D|--------0----------0----0-----------------0---|
 A|-------------3----------------------3---------|
 E|--3-------------------------------------------|

Goodbye my love The ship is
 
 E|--------------------------2-------------------|
 B|----0----------1------------3---------1-------|
 F|------0----------0------------0---------0-----|
 D|--------0----------0----0-----------------0---|
 A|-------------3----------------------3---------|
 E|--3-------------------------------------------|

Shipping off
 
 E|--------------------------2-------------------|
 B|----0----------1------------3---------1-------|
 F|------0----------0------------0---------0-----|
 D|--------0----------0----0-----------------0---|
 A|-------------3----------------------3---------|
 E|--3-------------------------------------------|

Goodbye my love I‚??ll give it up into
 
 E|--------------------------2-------------------|
 B|----0----------1------------3---------1-------|
 F|------0----------0------------0---------0-----|
 D|--------0----------0----0-----------------0---|
 A|-------------3----------------------3---------|
 E|--3-------------------------------------------|

The fog
 
 E|--------------------------2-------------------|
 B|----0----------1------------3---------1-------|
 F|------0----------0------------0---------0-----|
 D|--------0----------0----0-----------------0---|
 A|-------------3----------------------3---------|
 E|--3-------------------------------------------|

Goodbye my love I think I knew it
 
 E|--------------------------2-------------------|
 B|----0----------1------------3---------1-------|
 F|------0----------0------------0---------0-----|
 D|--------0----------0----0-----------------0---|
 A|-------------3----------------------3---------|
 E|--3-------------------------------------------|

All along
 
 E|--------------------------2-------------------|
 B|----0----------1------------3---------1-------|
 F|------0----------0------------0---------0-----|
 D|--------0----------0----0-----------------0---|
 A|-------------3----------------------3---------|
 E|--3-------------------------------------------|

Mmmmmm‚?¶
These are all barre chords
[G] [B] [C] [G]  
 
 E|--------3---------2---------1---------3--|
 B|--------3---------4---------5---------3--|
 F|--------2---------4---------5---------2--|
 D|---------------4---------5---------------|
 A|-----5------2---------3------------5-----|
 E|--3-----------------------------3--------|

Mmmmm‚?¶
[G] [B] [C] [D] [G]  
 
 E|--------3--------2-----3-----5--------3--|
 B|--------3--------4-----5-----7--------3--|
 F|--------2--------4-----5-----7--------2--|
 D|--------------4--------5-----7-----------|
 A|-----5-----2--------3-----5--------5-----|
 E|--3-----------------------------3--------|

Mmmm‚?¶
 
 E|--------3---------2---------1---------3--|
 B|--------3---------4---------5---------3--|
 F|--------2---------4---------5---------2--|
 D|---------------4---------5---------------|
 A|-----5------2---------3------------5-----|
 E|--3-----------------------------3--------|

Mmmmm‚?¶
 
 E|--------3--------2-----3-----5--------3--|
 B|--------3--------4-----5-----7--------3--|
 F|--------2--------4-----5-----7--------2--|
 D|--------------4--------5-----7-----------|
 A|-----5-----2--------3-----5--------5-----|
 E|--3-----------------------------3--------|

Mmmm‚?¶
 
 E|--------------------------2-------------------|
 B|----0----------1------------3---------1-------|
 F|------0----------0------------0---------0-----|
 D|--------0----------0----0-----------------0---|
 A|-------------3----------------------3---------|
 E|--3-------------------------------------------|

Mmmm‚?¶
 
 E|--------------------------2-------------------|
 B|----0----------1------------3---------1-------|
 F|------0----------0------------0---------0-----|
 D|--------0----------0----0-----------------0---|
 A|-------------3----------------------3---------|
 E|--3-------------------------------------------|

I‚??m in the archipelago and I‚??m waiting to
 
 E|--------------------------2-------------------|
 B|----0----------1------------3---------1-------|
 F|------0----------0------------0---------0-----|
 D|--------0----------0----0-----------------0---|
 A|-------------3----------------------3---------|
 E|--3-------------------------------------------|

Arrive
 
 E|--------------------------2-------------------|
 B|----0----------1------------3---------1-------|
 F|------0----------0------------0---------0-----|
 D|--------0----------0----0-----------------0---|
 A|-------------3----------------------3---------|
 E|--3-------------------------------------------|

I‚??m in the archipelago and I know I‚??m still
 
 E|--------------------------2-------------------|
 B|----0----------1------------3---------1-------|
 F|------0----------0------------0---------0-----|
 D|--------0----------0----0-----------------0---|
 A|-------------3----------------------3---------|
 E|--3-------------------------------------------|

Alive
 
 E|--------------------------2-------------------|
 B|----0----------1------------3---------1-------|
 F|------0----------0------------0---------0-----|
 D|--------0----------0----0-----------------0---|
 A|-------------3----------------------3---------|
 E|--3-------------------------------------------|

You finally told me what you had been thinking
 
 E|--------------------------2-------------------|
 B|----0----------1------------3---------1-------|
 F|------0----------0------------0---------0-----|
 D|--------0----------0----0-----------------0---|
 A|-------------3----------------------3---------|
 E|--3-------------------------------------------|

For so long
 
 E|--------------------------2-------------------|
 B|----0----------1------------3---------1-------|
 F|------0----------0------------0---------0-----|
 D|--------0----------0----0-----------------0---|
 A|-------------3----------------------3---------|
 E|--3-------------------------------------------|

And it breaks my heart wide open but I know that
 
 E|--------------------------2-------------------|
 B|----0----------1------------3---------1-------|
 F|------0----------0------------0---------0-----|
 D|--------0----------0----0-----------------0---|
 A|-------------3----------------------3---------|
 E|--3-------------------------------------------|

I‚??ll be stronger next time So goodbye
 
 E|--------------------------2-------------------|
 B|----0----------1------------3---------1-------|
 F|------0----------0------------0---------0-----|
 D|--------0----------0----0-----------------0---|
 A|-------------3----------------------3---------|
 E|--3-------------------------------------------|

My love I‚??ll miss it
 
 E|--------------------------2-------------------|
 B|----0----------1------------3---------1-------|
 F|------0----------0------------0---------0-----|
 D|--------0----------0----0-----------------0---|
 A|-------------3----------------------3---------|
 E|--3-------------------------------------------|

When it‚??s gone
 
 E|--------------------------2-------------------|
 B|----0----------1------------3---------1-------|
 F|------0----------0------------0---------0-----|
 D|--------0----------0----0-----------------0---|
 A|-------------3----------------------3---------|
 E|--3-------------------------------------------|

Goodbye my love The ship is
 
 E|--------------------------2-------------------|
 B|----0----------1------------3---------1-------|
 F|------0----------0------------0---------0-----|
 D|--------0----------0----0-----------------0---|
 A|-------------3----------------------3---------|
 E|--3-------------------------------------------|

Shipping off
 
 E|--------------------------2-------------------|
 B|----0----------1------------3---------1-------|
 F|------0----------0------------0---------0-----|
 D|--------0----------0----0-----------------0---|
 A|-------------3----------------------3---------|
 E|--3-------------------------------------------|

Goodbye my love I‚??ll give it up into
 
 E|--------------------------2-------------------|
 B|----0----------1------------3---------1-------|
 F|------0----------0------------0---------0-----|
 D|--------0----------0----0-----------------0---|
 A|-------------3----------------------3---------|
 E|--3-------------------------------------------|

The fog
 
 E|--------------------------2-------------------|
 B|----0----------1------------3---------1-------|
 F|------0----------0------------0---------0-----|
 D|--------0----------0----0-----------------0---|
 A|-------------3----------------------3---------|
 E|--3-------------------------------------------|

Goodbye my love I think I knew it
 
 E|--------------------------2-------------------|
 B|----0----------1------------3---------1-------|
 F|------0----------0------------0---------0-----|
 D|--------0----------0----0-----------------0---|
 A|-------------3----------------------3---------|
 E|--3-------------------------------------------|

All along I knew it
 
 E|--------------------------2-------------------|
 B|----0----------1------------3---------1-------|
 F|------0----------0------------0---------0-----|
 D|--------0----------0----0-----------------0---|
 A|-------------3----------------------3---------|
 E|--3-------------------------------------------|

All along I knew it
 
 E|--------------------------2--------------------------|
 B|----0----------1------------3---------1-----------0--|
 F|------0----------0------------0---------0--------0---|
 D|--------0----------0----0-----------------0-----0----|
 A|-------------3----------------------3----------2-----|
 E|--3-------------------------------------------3------|


Important: The song above is NOT stored on the Chordie server. The original song is hosted at www.azchords.com. Chordie works as a search engine and provides on-the-fly formatting. Chordie does not index songs against artists'/composers' will. To remove this song please click here.

Text color:
Chord color:
Chord grids: 
Font size:    
Page size: 

B C D G
Rate #1 of 1 versions

Jango Player

Login - add to songbook

SHARE PAGE  



You need to log in to post comments