Guitar Tabs, Chords and Lyrics
Server problems seems to be fixed. Chordie has been experiencing problems with songs disappearing. These issues now seems to be fixed, but still verifying the fix. If you find anything strange, please email admin@chordie.com.


Pumpkin Head  Misfits

Tune down 1/2 step:
Bass Slide...
[G] [F] [D#] [D]  
 
 |---------------[2-guitars-arrange-for-one]-----------|
 |-----------------------play-2-times------------------|
 |---------------------------------8-------------------|
 |-5--------5--7--8--7--3----------8-------------------|
 |-5-----5-------------------------6-----3--6--5--3--5-|
 |-3---------------------------------------------------|
 |------------------------------|
 |---------play-2-times---------|
 |-7--7-7-x--7--7-7-x--7--7-7-x-|
 |-7--7-7-x--7--7-7-x--7--7-7-x-|
 |-5--5-5-x--5--5-5-x--5--5-5-x-|
 |------------------------------|
 |-------------------------------------------------------------|
 |---------------------------play-3-times----------------------|
 |-------------------------------------------------------------|
 |-------------------------------------------------------------|
 |-4/5-5-5-5-5-5--8\7-7-7-7-7-7--4/5-5-5--8\7-7--4/5-5-5-5-5-5-|
 |-2/3-3-3-3-3-3--6\5-5-5-5-5-5--2/3-3-3--6\5-5--2/3-3-3-3-3-3-|
 pm------- pm------- pm- pm-------
 |-------------------------------------------------------------------|
 |-------------------------------------------------------------------|
 |-------------------------------------------------------------------|
 |-4/5-5-5-5-5-5--8\7-7-7-7-7-7--4/5-5-5--8\7-7--4/5-5-5-5-5-5--8--7-|
 |-2/3-3-3-3-3-3--6\5-5-5-5-5-5--2/3-3-3--6\5-5--2/3-3-3-3-3-3--8--7-|
 |--------------------------------------------------------------6--5-|
 pm------- pm------- pm- pm-------
 |-------------------------------------------------------------|
 |-------------------------------------------------------------|
 |-------------------------------------------------------------|
 |-------------------------------------------------------------|
 |-4/5-5-5-5-5-5--8\7-7-7-7-7-7--4/5-5-5--8\7-7--4/5-5-5-5-5-5-|
 |-2/3-3-3-3-3-3--6\5-5-5-5-5-5--2/3-3-3--6\5-5--2/3-3-3-3-3-3-|
 pm------- pm------- pm- pm-------
 |----------------------------------------|-----------------------------------|
 |----------------------------------------|-----------------------------------|
 |-9--------------------------------------|-9---------------------------------|
 |-9-----9-------7-------------11-------9-|-9-----9-------7------6-6-6--4-4-4-|
 |-7-----9-------7------11-11--11--9-9--9-|-7-----9-------7------6-6-6--4-4-4-|
 |-------7-------5-------9--9---9--7-7--7-|-------7-------5------4-4-4--2-2-2-|
 pm--- pm- pm--- pm---
 |----------------------------------------|-----------------------------------|
 |----------------------------------------|-----------------------------------|
 |-9--------------------------------------|-9---------------------------------|
 |-9-----9-------7-------------11-------9-|-9-----9-------7------6-6-6--4-4-4-|
 |-7-----9-------7------11-11--11--9-9--9-|-7-----9-------7------6-6-6--4-4-4-|
 |-------7-------5-------9--9---9--7-7--7-|-------7-------5------4-4-4--2-2-2-|
 pm--- pm- pm--- pm---
 |-------------------------------------------------------------|
 |---------------------------play-2-times----------------------|
 |-------------------------------------------------------------|
 |-------------------------------------------------------------|
 |-4/5-5-5-5-5-5--8\7-7-7-7-7-7--4/5-5-5--8\7-7--4/5-5-5-5-5-5-|
 |-2/3-3-3-3-3-3--6\5-5-5-5-5-5--2/3-3-3--6\5-5--2/3-3-3-3-3-3-|
 pm------- pm------- pm- pm-------
 |-------------------------------------------------------------------|
 |-------------------------------------------------------------------|
 |-------------------------------------------------------------------|
 |-4/5-5-5-5-5-5--8\7-7-7-7-7-7--4/5-5-5--8\7-7--4/5-5-5-5-5-5--8--7-|
 |-2/3-3-3-3-3-3--6\5-5-5-5-5-5--2/3-3-3--6\5-5--2/3-3-3-3-3-3--8--7-|
 |--------------------------------------------------------------6--5-|
 pm------- pm------- pm- pm-------
 |-------------------------------------------------------------|
 |-------------------------------------------------------------|
 |-------------------------------------------------------------|
 |-------------------------------------------------------------|
 |-4/5-5-5-5-5-5--8\7-7-7-7-7-7--4/5-5-5--8\7-7--4/5-5-5-5-5-5-|
 |-2/3-3-3-3-3-3--6\5-5-5-5-5-5--2/3-3-3--6\5-5--2/3-3-3-3-3-3-|
 pm------- pm------- pm- pm-------
 |----------------------------------------|-----------------------------------|
 |----------------------------------------|-----------------------------------|
 |-9--------------------------------------|-9---------------------------------|
 |-9-----9-------7-------------11-------9-|-9-----9-------7------6-6-6--4-4-4-|
 |-7-----9-------7------11-11--11--9-9--9-|-7-----9-------7------6-6-6--4-4-4-|
 |-------7-------5-------9--9---9--7-7--7-|-------7-------5------4-4-4--2-2-2-|
 pm--- pm- pm--- pm---
 |----------------------------------------|-----------------------------------|
 |----------------------------------------|-----------------------------------|
 |-9--------------------------------------|-9---------------------------------|
 |-9-----9-------7-------------11-------9-|-9-----9-------7------6-6-6--4-4-4-|
 |-7-----9-------7------11-11--11--9-9--9-|-7-----9-------7------6-6-6--4-4-4-|
 |-------7-------5-------9--9---9--7-7--7-|-------7-------5------4-4-4--2-2-2-|
 pm--- pm- pm--- pm---
 |---------------------------------|
 |----------play-2-times-----------|
 |---------------------------------|
 |----------------------------8--7-|
 |-4/5-5-5--7\8-8-8--4/5-5-5--8--7-|
 |-2/3-3-3--5\6-6-6--2/3-3-3--6--5-|

pm- pm- pm-
 
 |----------------------------------------|-----------------------------------|
 |----------------------------------------|-----------------------------------|
 |-9--------------------------------------|-9---------------------------------|
 |-9-----9-------7-------------11-------9-|-9-----9-------7------6-6-6--4-4-4-|
 |-7-----9-------7------11-11--11--9-9--9-|-7-----9-------7------6-6-6--4-4-4-|
 |-------7-------5-------9--9---9--7-7--7-|-------7-------5------4-4-4--2-2-2-|
 pm--- pm- pm--- pm---
 |----------------------------------------|-----------------------------------|
 |----------------------------------------|-----------------------------------|
 |-9--------------------------------------|-9---------------------------------|
 |-9-----9-------7-------------11-------9-|-9-----9-------7------6-6-6--4-4-4-|
 |-7-----9-------7------11-11--11--9-9--9-|-7-----9-------7------6-6-6--4-4-4-|
 |-------7-------5-------9--9---9--7-7--7-|-------7-------5------4-4-4--2-2-2-|
 pm--- pm- pm--- pm---
 |---------------------------------|
 |----------play-4-times-----------|
 |---------------------------------|
 |----------------------------8--7-|
 |-4/5-5-5--7\8-8-8--4/5-5-5--8--7-|
 |-2/3-3-3--5\6-6-6--2/3-3-3--6--5-|

pm- pm- pm-

Important: The song above is NOT stored on the Chordie server. The original song is hosted at www.azchords.com. Chordie works as a search engine and provides on-the-fly formatting. Chordie does not index songs against artists'/composers' will. To remove this song please click here.

Text color:
Chord color:
Chord grids: 
Font size:    
Page size: 

D D# F G
Rate #1 of 1 versions

Jango Player

Login - add to songbook

SHARE PAGE  



You need to log in to post comments