Guitar Tabs, Chords and Lyrics
Server problems seems to be fixed. Chordie has been experiencing problems with songs disappearing. These issues now seems to be fixed, but still verifying the fix. If you find anything strange, please email admin@chordie.com.


The Black Hole   Misfits

 
 e|---------------------------------------------------------------------------|
 B|---------------------------------------------------------------------------|
 G|---------------------------------------------------------------------------|
 D|-6--6-6--6-6---------------------------------------------------------------|
 A|-6--6-6--6-6---------------------------------------------------------------|
 E|-4--4-4--4-4---------------------------------------------------------------|

 


 [Verse] 


 


 

 
 e|---------------------------------------------------------------------------|
 B|---------------------------------------------------------------------------|
 G|-6-6-6-6-6-6-6-6-----------------------------------------------------------|
 D|-6-6-6-6-6-6-6-6-4-4-4-4-6-6-6-6-------------------------------------------|
 A|-4-4-4-4-4-4-4-4-4-4-4-4-6-6-6-6-------------------------------------------|
 E|-----------------2-2-2-2-4-4-4-4-------------------------------------------|
 e|---------------------------------------------------------------------------|
 B|---------------------------------------------------------------------------|
 G|-6-6-6-6-6-6-6-6-----------------------------------------------------------|
 D|-6-6-6-6-6-6-6-6-4-4-4-4-6-6-6-6-------------------------------------------|
 A|-4-4-4-4-4-4-4-4-4-4-4-4-6-6-6-6-------------------------------------------|
 E|-----------------2-2-2-2-4-4-4-4-------------------------------------------|

 


 


 Feel the pull of gravity


 As light gets stripped away


 All the endless colors


 All turn a shade of grey


 


 I know there's something out there


 Something we ain't seen


 Something undiscovered


 A nightmare or a dream


 


 [Pre-Cborus] 


 


 

 
 e|---------------------------------------------------------------------------|
 B|---------------------------------------------------------------------------|
 G|---------------------------------------------------------------------------|
 D|-4-4-4-4-4-4-4-4-4-4-4-4-4-4-4-4-6-6-6-6-6-6-6-6-6-6-6-6-6-6-6-6-----------|
 A|-4-4-4-4-4-4-4-4-4-4-4-4-4-4-4-4-6-6-6-6-6-6-6-6-6-6-6-6-6-6-6-6-----------|
 E|-2-2-2-2-2-2-2-2-2-2-2-2-2-2-2-2-4-4-4-4-4-4-4-4-4-4-4-4-4-4-4-4-----------|
 e|---------------------------------------------------------------------------|
 B|-------------------------------6--7--9-9-9-9-9-----------------------------|
 G|-------3--6--------5--8--6--8----------------------------------------------|
 D|-4--6--------6--8----------------------------------------------------------|
 A|---------------------------------------------------------------------------|
 E|---------------------------------------------------------------------------|

 


 


 But soon we'll know


 Lock controls


 And set course into?


 


 [Cborus] 


 


 

 
 e|---------------------------------------------------------------------------|
 B|---------------------------------------------------------------------------|
 G|-6--5--3-------------------------------------------------------------------|
 D|-6--5--3--6--4--4-4-4-4-4-4-6--6-6-6-6-6-6---------------------------------|
 A|-4--3--1--6--4--4-4-4-4-4-4-6--6-6-6-6-6-6---------------------------------|
 E|----------4--2--2-2-2-2-2-2-4--4-4-4-4-4-4---------------------------------|
 e|---------------------------------------------------------------------------|
 B|---------------------------------------------------------------------------|
 G|-6--5--3-------------------------------------------------------------------|
 D|-6--5--3--6--4--4-4-4-4-4-4-6--6-6-6-6-6-6---------------------------------|
 A|-4--3--1--6--4--4-4-4-4-4-4-6--6-6-6-6-6-6---------------------------------|
 E|----------4--2--2-2-2-2-2-2-4--4-4-4-4-4-4---------------------------------|

 


 


 The Black Hole


 We show an earlier distress code


 Of a mission still missing


 It goes far beyond the reaches


 Of this world, to the unknown


 


 [Verse] 


 


 

 
 e|---------------------------------------------------------------------------|
 B|---------------------------------------------------------------------------|
 G|-6-6-6-6-6-6-6-6-----------------------------------------------------------|
 D|-6-6-6-6-6-6-6-6-4-4-4-4-6-6-6-6-------------------------------------------|
 A|-4-4-4-4-4-4-4-4-4-4-4-4-6-6-6-6-------------------------------------------|
 E|-----------------2-2-2-2-4-4-4-4-------------------------------------------|
 e|---------------------------------------------------------------------------|
 B|---------------------------------------------------------------------------|
 G|-6-6-6-6-6-6-6-6-----------------------------------------------------------|
 D|-6-6-6-6-6-6-6-6-4-4-4-4-6-6-6-6-------------------------------------------|
 A|-4-4-4-4-4-4-4-4-4-4-4-4-6-6-6-6-------------------------------------------|
 E|-----------------2-2-2-2-4-4-4-4-------------------------------------------|

 


 


 Catapult our universe


 Uncharted outer space


 Here we are the aliens


 An unknown threatening race


 


 I know there's something out there


 Someplace we ain't been


 Collision course with destiny


 Or the end of everything


 


 [Pre-Cborus] 


 


 

 
 e|---------------------------------------------------------------------------|
 B|---------------------------------------------------------------------------|
 G|---------------------------------------------------------------------------|
 D|-4-4-4-4-4-4-4-4-4-4-4-4-4-4-4-4-6-6-6-6-6-6-6-6-6-6-6-6-6-6-6-6-----------|
 A|-4-4-4-4-4-4-4-4-4-4-4-4-4-4-4-4-6-6-6-6-6-6-6-6-6-6-6-6-6-6-6-6-----------|
 E|-2-2-2-2-2-2-2-2-2-2-2-2-2-2-2-2-4-4-4-4-4-4-4-4-4-4-4-4-4-4-4-4-----------|
 e|---------------------------------------------------------------------------|
 B|-------------------------------6--7--9-9-9-9-9-----------------------------|
 G|-------3--6--------5--8--6--8----------------------------------------------|
 D|-4--6--------6--8----------------------------------------------------------|
 A|---------------------------------------------------------------------------|
 E|---------------------------------------------------------------------------|

 


 


 But soon we'll know


 Lock controls


 And set course into?


 


 [Cborus] 


 

 
 e|---------------------------------------------------------------------------|
 B|---------------------------------------------------------------------------|
 G|-6--5--3-------------------------------------------------------------------|
 D|-6--5--3--6--4--4-4-4-4-4-4-6--6-6-6-6-6-6---------------------------------|
 A|-4--3--1--6--4--4-4-4-4-4-4-6--6-6-6-6-6-6---------------------------------|
 E|----------4--2--2-2-2-2-2-2-4--4-4-4-4-4-4---------------------------------|
 e|---------------------------------------------------------------------------|
 B|---------------------------------------------------------------------------|
 G|-6--5--3-------------------------------------------------------------------|
 D|-6--5--3--6--4--4-4-4-4-4-4-6--6-6-6-6-6-6---------------------------------|
 A|-4--3--1--6--4--4-4-4-4-4-4-6--6-6-6-6-6-6---------------------------------|
 E|----------4--2--2-2-2-2-2-2-4--4-4-4-4-4-4---------------------------------|
 e|---------------------------------------------------------------------------|
 B|---------------------------------------------------------------------------|
 G|-6--5--3-------------------------------------------------------------------|
 D|-6--5--3--6--4--4-4-4-4-4-4-6--6-6-6-6-6-6---------------------------------|
 A|-4--3--1--6--4--4-4-4-4-4-4-6--6-6-6-6-6-6---------------------------------|
 E|----------4--2--2-2-2-2-2-2-4--4-4-4-4-4-4---------------------------------|
 e|---------------------------------------------------------------------------|
 B|---------------------------------------------------------------------------|
 G|-6--5--3------------------------------------6------------------------------|
 D|-6--5--3--6--4--4-4-4-4-4-4-6--6-6-6-6-6-6--6-let ring---------------------|
 A|-4--3--1--6--4--4-4-4-4-4-4-6--6-6-6-6-6-6--4------------------------------|
 E|----------4--2--2-2-2-2-2-2-4--4-4-4-4-4-4---------------------------------|


Important: The song above is NOT stored on the Chordie server. The original song is hosted at www.azchords.com. Chordie works as a search engine and provides on-the-fly formatting. Chordie does not index songs against artists'/composers' will. To remove this song please click here.

This song is displayed as text-only. Transposing and tuning is only available for chordpro-songs.
Rate #1 of 1 versions

Login - add to songbook

SHARE PAGE  




You need to log in to post comments