Guitar Tabs, Chords and Lyrics
Major upgrade!! After one year development the new version of Chordie is now online! Please give feedback.


Severina  The Mission

THE MISSION - "Severina"
Comments, corrections etc. welcome.
Main Riff:
 
 e -------------2-0----------------------0/2/0----------
 B -------0---------3-0------------0-----------3-0------
 G ---0-----0-----------0------3-----3-------------0----
 D -2---2-----2-----------2--4---4-----4-------------4--
 A -----------------------------------------------------
 E -----------------------------------------------------
 e ------------2-0----------2---
 B ------0---------3-0------2---
 G --0-----0-----------0----3---
 D 2---2-----2-----------2--4---
 A -----------------------------
 E -----------------------------

[D] [Em] She's got her head in the clouds,
[D] [Em] She's got the stars in her eyes
[G] [D] She's dancing,
[G] [D] With a dream in her heart
[D] [Em] She's got the wind in her hair,
[D] [Em]Moonchild shining bright
[G] She's [D]dancing,
[G] [D] With a dream in her heart
[Em]Seve[C]rina
[C]Severina
[G] [Em] She believes in angels,
[D] [Em] She believes in the will of the gods
[G] She's [D]dancing,
[G] [D] Amongst the magic dust
[D] [Em] She believes in the midnight trance,
[D] [Em] She believes in love as a law
[G] She's [D]dancing,
[G] [D] Amongst the magic dust
[Em]Seve[C]rina
[C]Severina
[G] [Em] Starchild,
[D] [Em] Baby born of heaven
[Em]Seve[C]rina
[C]Severina
Em Em ... Em D C D Em
Em Em ... Em D C D Em
She's got her heart full of promise (?),
She's got to hand in her heart (?)
She's dancing,
By the light of the moon
She's got her head full of secrets,
Sworn to the faith of love under will
She's dancing,
By the light of the moon
Severina
Severina
She's a gift from the gods
She's dancing
Severina
Severina
Severina

Important: The song above is NOT stored on the Chordie server. The original song is hosted at www.azchords.com. Chordie works as a search engine and provides on-the-fly formatting. Chordie does not index songs against artists'/composers' will. To remove this song please click here.

Text color:
Chord color:
Chord grids: 
Font size:    
Page size: 

C D Em G
Rate #1 of 5 versions

Jango Player

Login - add to songbook

SHARE PAGE  



You need to log in to post comments