Guitar Tabs, Chords and Lyrics
Update 25:10. 13:00. Site is back up running again. Songbooks are recovered. Woring on getting search back up..


Coyotes  Modest Mouse

First Rift
 
 E|--7-----5-----3-----2---|-------2--------------------0-----------0----------------|
 B|------------------------|---------------------------------------------------------|
 G|------------------------|------------2--------------------------------0-----------|
 D|--5-----4-----2-----0---|----------------------------2----------------------------|
 A|------------------------|--0----------------------------------3-------------------|
 E|------------------------|-------------------------------------------------------3-|

Second Rift (Same as last rift except for the last notes)
 
 E|--7-----5-----3-----2---|-------2--------------------0-----------0---------------3-|
 B|------------------------|----------------------------------------------------------|
 G|------------------------|------------2-------------------------------0-----------0-|
 D|--5-----4-----2-----0---|----------------------------2-----------------------------|
 A|------------------------|--0---------------------------------3---------------------|
 E|------------------------|----------------------------------------------------------|

[E]And we‚?[D]?re in l[C]ove with[G] all of it
[E]And we s[D]ay, what[C] can we [G6]say‚??
Cool Riff:
Starting of seventh fret, play an E5 chord
With that same chord, slide up:
Two frets
One fret
Five frets
 
 E|---x--------x--------x--------x-----|
 B|---0--------0--------0--------0-----|
 G|---9--------11-------12-------17----|
 D|---9--------11-------12-------17----|
 A|---7--------9--------10-------15----|
 E|---x--------x--------x--------x-----|

Then slide down:
One fret
Two frets
Two frets
 
 E|---x--------x--------x--------x-----|
 B|---0--------0--------0--------0-----|
 G|---17-------16-------14-------12----|
 D|---17-------16-------14-------12----|
 A|---15-------14-------12-------6-----|
 E|---x--------x--------x--------x-----|

These chords take an especially long neck on your guitar.
If you can‚??t get that high,
then start with the A string on fret 2, with D and G on 4, and make the same slides.
There is a second riff that uses a power chord that holds it's shape just like the the E5.
 
 E|---x--------x--------x--------x-----|
 B|---12-------10-------8--------7-----|
 G|---x--------x--------x--------x-----|
 D|---9--------7--------5--------4-----|
 A|---x--------x--------x--------x-----|
 E|---x--------x--------x--------x-----|

______________________________________
 
 E|---x--------x--------x--------x-----|
 B|---15-------12-------10-------8-----|
 G|---x--------x--------x--------x-----|
 D|---12-------9--------7--------5-----|
 A|---x--------x--------x--------x-----|
 E|---x--------x--------x--------x-----|

[E]And we[D] say we're in [CaddD]love wi[G]th all of it
[E]And we[D] say we're in [CaddD]love wi[G]th everything
[E]And we [D]say what c[C]an we sa[G6]y‚??
E(hold) D(hold) CaddD(hold) G
And we say we're in love, with all of it
E(hold) D(hold) CaddD(hold) G (hold)
And we say we're in love, with everything
[E]And we [D]lie, [C]we love to [G6]lie.

Important: The song above is NOT stored on the Chordie server. The original song is hosted at www.azchords.com. Chordie works as a search engine and provides on-the-fly formatting. Chordie does not index songs against artists'/composers' will. To remove this song please click here.

Text color:
Chord color:
Chord grids: 
Font size:    
Page size: 

C CaddD D E G G6
Rate #1 of 3 versions

Jango Player

Login - add to songbook

SHARE PAGE  




You need to log in to post comments