Guitar Tabs, Chords and Lyrics
Major upgrade!! After one year development the new version of Chordie is now online! Please give feedback.


Daily Nightly  The Monkees

Fade In A C D A
 
 e--------------------------|
 B--------------------------|
 G--------------------------|
 D--------------------------|
 A-------3p2p0--------------|
 E-0-3-5-------0-3-5--------|

[A]Darkened rolling [C]figures move through [D]prisms of no [A]color
[A]Hand in hand, they [C]walk the night, but [D]never know each [A]other
[E]Passion cast in neon lights light [D]up the jewelled [A]trav'ler
[A]Who, lost in scenes of [C]smoke-filled dreams find [D]questions, but no [A]answers
[A]Startled eyes that [C]sometimes see [D]phantasmagoric [A]splendor
[A]Pirouhette down [C]palsied paths with [D]pennies for the [A]vendor
[E]Salvation's yours for just the time it [D]takes to pay the [A]dancer
[A]Once again, such [C]anxious men find [D]questions but no [A]answers
[E]The night has gone and taken its in[A]fraction
While [E]reddened eyes hope there will be a next [A]one
 
 e--------------------------|
 B--------------------------|
 G--------------------------|
 D--------------------------|
 A-------3p2p0--------------|
 E-0-3-5-------0-3-5--------|

[A]Terror signs look [C]down upon a [D]world that glitters [A]glibly
[A]And mountainsides put [C]arms around the [D]unsuspecting [A]city
[E]Second hands that minds have slowed are [D]moving even [A]faster
[A]Toward bringing down some[C]one who's found with [D]questions but no [A]answers
 
 e--------------------------|
 B--------------------------|
 G--------------------------|
 D--------------------------|
 A-------3p2p0--------------|
 E-0-3-5-------0-3-5--------|


Important: The song above is NOT stored on the Chordie server. The original song is hosted at www.azchords.com. Chordie works as a search engine and provides on-the-fly formatting. Chordie does not index songs against artists'/composers' will. To remove this song please click here.

Text color:
Chord color:
Chord grids: 
Font size:    
Page size: 

A C D E
Rate #2 of 6 versions

Jango Player

Login - add to songbook

SHARE PAGE  



You need to log in to post comments